  0
SECTION
  2
HEADER
  9
$ACADVER
  1
AC1015
  9
$ACADMAINTVER
 70
     6
  9
$DWGCODEPAGE
  3
ANSI_1254
  9
$INSBASE
 10
0.0
 20
0.0
 30
0.0
  9
$EXTMIN
 10
0.0
 20
0.0
 30
0.0
  9
$EXTMAX
 10
279.4
 20
215.9
 30
0.0
  9
$LIMMIN
 10
0.0
 20
0.0
  9
$LIMMAX
 10
279.4
 20
215.9
  9
$ORTHOMODE
 70
     0
  9
$REGENMODE
 70
     1
  9
$FILLMODE
 70
     1
  9
$QTEXTMODE
 70
     0
  9
$MIRRTEXT
 70
     1
  9
$LTSCALE
 40
1.0
  9
$ATTMODE
 70
     1
  9
$TEXTSIZE
 40
3.5
  9
$TRACEWID
 40
1.0
  9
$TEXTSTYLE
  7
Standard
  9
$CLAYER
  8
0
  9
$CELTYPE
  6
ByLayer
  9
$CECOLOR
 62
   256
  9
$CELTSCALE
 40
1.0
  9
$DISPSILH
 70
     0
  9
$DIMSCALE
 40
1.0
  9
$DIMASZ
 40
3.5
  9
$DIMEXO
 40
1.0
  9
$DIMDLI
 40
3.75
  9
$DIMRND
 40
0.0
  9
$DIMDLE
 40
0.0
  9
$DIMEXE
 40
1.0
  9
$DIMTP
 40
0.0
  9
$DIMTM
 40
0.0
  9
$DIMTXT
 40
3.5
  9
$DIMCEN
 40
2.5
  9
$DIMTSZ
 40
0.0
  9
$DIMTOL
 70
     0
  9
$DIMLIM
 70
     0
  9
$DIMTIH
 70
     1
  9
$DIMTOH
 70
     1
  9
$DIMSE1
 70
     0
  9
$DIMSE2
 70
     0
  9
$DIMTAD
 70
     1
  9
$DIMZIN
 70
     0
  9
$DIMBLK
  1

  9
$DIMASO
 70
     1
  9
$DIMSHO
 70
     1
  9
$DIMPOST
  1

  9
$DIMAPOST
  1

  9
$DIMALT
 70
     0
  9
$DIMALTD
 70
     3
  9
$DIMALTF
 40
0.0393700787
  9
$DIMLFAC
 40
1.0
  9
$DIMTOFL
 70
     1
  9
$DIMTVP
 40
0.0
  9
$DIMTIX
 70
     0
  9
$DIMSOXD
 70
     0
  9
$DIMSAH
 70
     0
  9
$DIMBLK1
  1

  9
$DIMBLK2
  1

  9
$DIMSTYLE
  2
ISO-25
  9
$DIMCLRD
 70
     0
  9
$DIMCLRE
 70
     0
  9
$DIMCLRT
 70
     0
  9
$DIMTFAC
 40
1.0
  9
$DIMGAP
 40
1.524
  9
$DIMJUST
 70
     0
  9
$DIMSD1
 70
     0
  9
$DIMSD2
 70
     0
  9
$DIMTOLJ
 70
     0
  9
$DIMTZIN
 70
     0
  9
$DIMALTZ
 70
     0
  9
$DIMALTTZ
 70
     0
  9
$DIMUPT
 70
     0
  9
$DIMDEC
 70
     2
  9
$DIMTDEC
 70
     2
  9
$DIMALTU
 70
     2
  9
$DIMALTTD
 70
     3
  9
$DIMTXSTY
  7
Standard
  9
$DIMAUNIT
 70
     0
  9
$DIMADEC
 70
     2
  9
$DIMALTRND
 40
0.0
  9
$DIMAZIN
 70
     0
  9
$DIMDSEP
 70
    44
  9
$DIMATFIT
 70
     3
  9
$DIMFRAC
 70
     0
  9
$DIMLDRBLK
  1

  9
$DIMLUNIT
 70
     2
  9
$DIMLWD
 70
    -2
  9
$DIMLWE
 70
    -2
  9
$DIMTMOVE
 70
     0
  9
$LUNITS
 70
     2
  9
$LUPREC
 70
     2
  9
$SKETCHINC
 40
1.0
  9
$FILLETRAD
 40
10.0
  9
$AUNITS
 70
     0
  9
$AUPREC
 70
     2
  9
$MENU
  1
.
  9
$ELEVATION
 40
0.0
  9
$PELEVATION
 40
0.0
  9
$THICKNESS
 40
0.0
  9
$LIMCHECK
 70
     0
  9
$CHAMFERA
 40
0.0
  9
$CHAMFERB
 40
0.0
  9
$CHAMFERC
 40
0.0
  9
$CHAMFERD
 40
0.0
  9
$SKPOLY
 70
     0
  9
$TDCREATE
 40
2458985.721533461
  9
$TDUCREATE
 40
2458985.596533461
  9
$TDUPDATE
 40
2458985.721533785
  9
$TDUUPDATE
 40
2458985.596533785
  9
$TDINDWG
 40
0.0000000116
  9
$TDUSRTIMER
 40
0.0000000116
  9
$USRTIMER
 70
     1
  9
$ANGBASE
 50
0.0
  9
$ANGDIR
 70
     0
  9
$PDMODE
 70
     0
  9
$PDSIZE
 40
-1.0
  9
$PLINEWID
 40
0.0
  9
$SPLFRAME
 70
     0
  9
$SPLINETYPE
 70
     6
  9
$SPLINESEGS
 70
     8
  9
$HANDSEED
  5
E2
  9
$SURFTAB1
 70
     6
  9
$SURFTAB2
 70
     6
  9
$SURFTYPE
 70
     6
  9
$SURFU
 70
     6
  9
$SURFV
 70
     6
  9
$UCSBASE
  2

  9
$UCSNAME
  2

  9
$UCSORG
 10
0.0
 20
0.0
 30
0.0
  9
$UCSXDIR
 10
1.0
 20
0.0
 30
0.0
  9
$UCSYDIR
 10
0.0
 20
1.0
 30
0.0
  9
$UCSORTHOREF
  2

  9
$UCSORTHOVIEW
 70
     0
  9
$UCSORGTOP
 10
0.0
 20
0.0
 30
0.0
  9
$UCSORGBOTTOM
 10
0.0
 20
0.0
 30
0.0
  9
$UCSORGLEFT
 10
0.0
 20
0.0
 30
0.0
  9
$UCSORGRIGHT
 10
0.0
 20
0.0
 30
0.0
  9
$UCSORGFRONT
 10
0.0
 20
0.0
 30
0.0
  9
$UCSORGBACK
 10
0.0
 20
0.0
 30
0.0
  9
$PUCSBASE
  2

  9
$PUCSNAME
  2

  9
$PUCSORG
 10
0.0
 20
0.0
 30
0.0
  9
$PUCSXDIR
 10
1.0
 20
0.0
 30
0.0
  9
$PUCSYDIR
 10
0.0
 20
1.0
 30
0.0
  9
$PUCSORTHOREF
  2

  9
$PUCSORTHOVIEW
 70
     0
  9
$PUCSORGTOP
 10
0.0
 20
0.0
 30
0.0
  9
$PUCSORGBOTTOM
 10
0.0
 20
0.0
 30
0.0
  9
$PUCSORGLEFT
 10
0.0
 20
0.0
 30
0.0
  9
$PUCSORGRIGHT
 10
0.0
 20
0.0
 30
0.0
  9
$PUCSORGFRONT
 10
0.0
 20
0.0
 30
0.0
  9
$PUCSORGBACK
 10
0.0
 20
0.0
 30
0.0
  9
$USERI1
 70
     0
  9
$USERI2
 70
     0
  9
$USERI3
 70
     0
  9
$USERI4
 70
     0
  9
$USERI5
 70
     0
  9
$USERR1
 40
0.0
  9
$USERR2
 40
0.0
  9
$USERR3
 40
0.0
  9
$USERR4
 40
0.0
  9
$USERR5
 40
0.0
  9
$WORLDVIEW
 70
     1
  9
$SHADEDGE
 70
     3
  9
$SHADEDIF
 70
    70
  9
$TILEMODE
 70
     1
  9
$MAXACTVP
 70
    64
  9
$PINSBASE
 10
0.0
 20
0.0
 30
0.0
  9
$PLIMCHECK
 70
     0
  9
$PEXTMIN
 10
1.0000000000E+20
 20
1.0000000000E+20
 30
1.0000000000E+20
  9
$PEXTMAX
 10
-1.0000000000E+20
 20
-1.0000000000E+20
 30
-1.0000000000E+20
  9
$PLIMMIN
 10
0.0
 20
0.0
  9
$PLIMMAX
 10
420.0
 20
297.0
  9
$UNITMODE
 70
     0
  9
$VISRETAIN
 70
     1
  9
$PLINEGEN
 70
     0
  9
$PSLTSCALE
 70
     1
  9
$TREEDEPTH
 70
  3020
  9
$CMLSTYLE
  2
Standard
  9
$CMLJUST
 70
     0
  9
$CMLSCALE
 40
20.0
  9
$PROXYGRAPHICS
 70
     1
  9
$MEASUREMENT
 70
     1
  9
$CELWEIGHT
370
    -1
  9
$ENDCAPS
280
     0
  9
$JOINSTYLE
280
     0
  9
$LWDISPLAY
290
     1
  9
$INSUNITS
 70
     4
  9
$HYPERLINKBASE
  1

  9
$STYLESHEET
  1

  9
$XEDIT
290
     1
  9
$CEPSNTYPE
380
     0
  9
$PSTYLEMODE
290
     1
  9
$FINGERPRINTGUID
  2
{6d446462-af29-4ae6-8200-dead29ae2a35}
  9
$VERSIONGUID
  2
{FAEB1C32-E019-11D5-929B-00C0DF256EC4}
  9
$EXTNAMES
290
     1
  9
$PSVPSCALE
 40
0.0
  9
$OLESTARTUP
290
     0
  0
ENDSEC
  0
SECTION
  2
CLASSES
  0
CLASS
  1
ACDBDICTIONARYWDFLT
  2
AcDbDictionaryWithDefault
  3
ObjectDBX Classes
 90
        0
280
     0
281
     0
  0
CLASS
  1
VISUALSTYLE
  2
AcDbVisualStyle
  3
ObjectDBX Classes
 90
     4095
280
     0
281
     0
  0
CLASS
  1
MATERIAL
  2
AcDbMaterial
  3
ObjectDBX Classes
 90
     1153
280
     0
281
     0
  0
CLASS
  1
SCALE
  2
AcDbScale
  3
ObjectDBX Classes
 90
     1153
280
     0
281
     0
  0
CLASS
  1
TABLESTYLE
  2
AcDbTableStyle
  3
ObjectDBX Classes
 90
     4095
280
     0
281
     0
  0
CLASS
  1
MLEADERSTYLE
  2
AcDbMLeaderStyle
  3
ACDB_MLEADERSTYLE_CLASS
 90
     4095
280
     0
281
     0
  0
CLASS
  1
SUN
  2
AcDbSun
  3
SCENEOE
 90
     1153
280
     0
281
     0
  0
CLASS
  1
ACDBPLACEHOLDER
  2
AcDbPlaceHolder
  3
ObjectDBX Classes
 90
        0
280
     0
281
     0
  0
CLASS
  1
LAYOUT
  2
AcDbLayout
  3
ObjectDBX Classes
 90
        0
280
     0
281
     0
  0
ENDSEC
  0
SECTION
  2
TABLES
  0
TABLE
  2
VPORT
  5
8
330
0
100
AcDbSymbolTable
 70
     1
  0
VPORT
  5
29
330
8
100
AcDbSymbolTableRecord
100
AcDbViewportTableRecord
  2
*Active
 70
     0
 10
0.0
 20
0.0
 11
1.0
 21
1.0
 12
139.7
 22
107.95
 13
0.0
 23
0.0
 14
10.0
 24
10.0
 15
10.0
 25
10.0
 16
0.0
 26
0.0
 36
1.0
 17
0.0
 27
0.0
 37
0.0
 40
215.9
 41
1.2941176471
 42
50.0
 43
0.0
 44
0.0
 50
0.0
 51
0.0
 71
     0
 72
  2000
 73
     1
 74
     3
 75
     0
 76
     0
 77
     0
 78
     0
281
     0
 65
     1
110
0.0
120
0.0
130
0.0
111
1.0
121
0.0
131
0.0
112
0.0
122
1.0
132
0.0
 79
     0
146
0.0
  0
ENDTAB
  0
TABLE
  2
LTYPE
  5
5
330
0
100
AcDbSymbolTable
 70
     6
  0
LTYPE
  5
14
330
5
100
AcDbSymbolTableRecord
100
AcDbLinetypeTableRecord
  2
ByBlock
 70
     0
  3

 72
    65
 73
     0
 40
0.0
  0
LTYPE
  5
15
330
5
100
AcDbSymbolTableRecord
100
AcDbLinetypeTableRecord
  2
ByLayer
 70
     0
  3

 72
    65
 73
     0
 40
0.0
  0
LTYPE
  5
16
330
5
100
AcDbSymbolTableRecord
100
AcDbLinetypeTableRecord
  2
Continuous
 70
     0
  3
Solid line
 72
    65
 73
     0
 40
0.0
  0
LTYPE
  5
6E
330
5
100
AcDbSymbolTableRecord
100
AcDbLinetypeTableRecord
  2
HIDDEN
 70
     0
  3
Hidden __ __ __ __ __ __ __ __ __ __ __ __ __ __
 72
    65
 73
     2
 40
1.905
 49
1.27
 74
     0
 49
-0.635
 74
     0
  0
LTYPE
  5
6F
330
5
100
AcDbSymbolTableRecord
100
AcDbLinetypeTableRecord
  2
PHANTOM
 70
     0
  3
Phantom ______  __  __  ______  __  __  ______
 72
    65
 73
     6
 40
12.7
 49
6.35
 74
     0
 49
-1.27
 74
     0
 49
1.27
 74
     0
 49
-1.27
 74
     0
 49
1.27
 74
     0
 49
-1.27
 74
     0
  0
LTYPE
  5
70
330
5
100
AcDbSymbolTableRecord
100
AcDbLinetypeTableRecord
  2
CENTER
 70
     0
  3
Center ____ _ ____ _ ____ _ ____ _ ____ _ ____
 72
    65
 73
     4
 40
10.16
 49
6.35
 74
     0
 49
-1.27
 74
     0
 49
1.27
 74
     0
 49
-1.27
 74
     0
  0
LTYPE
  5
71
330
5
100
AcDbSymbolTableRecord
100
AcDbLinetypeTableRecord
  2
CENTERX2
 70
     0
  3
Center (2x) ________  __  ________  __  _____
 72
    65
 73
     4
 40
20.32
 49
12.7
 74
     0
 49
-2.54
 74
     0
 49
2.54
 74
     0
 49
-2.54
 74
     0
  0
LTYPE
  5
72
330
5
100
AcDbSymbolTableRecord
100
AcDbLinetypeTableRecord
  2
DOT2
 70
     0
  3
Dot (.5x) ........................................
 72
    65
 73
     2
 40
0.635
 49
0.0
 74
     0
 49
-0.635
 74
     0
  0
ENDTAB
  0
TABLE
  2
LAYER
  5
2
330
0
100
AcDbSymbolTable
 70
    17
  0
LAYER
  5
10
330
2
100
AcDbSymbolTableRecord
100
AcDbLayerTableRecord
  2
0
 70
     0
 62
     7
  6
Continuous
370
    -3
390
F
  0
LAYER
  5
73
330
2
100
AcDbSymbolTableRecord
100
AcDbLayerTableRecord
  2
FORMAT
 70
     0
 62
     7
  6
Continuous
370
    -3
390
F
  0
LAYER
  5
74
330
2
100
AcDbSymbolTableRecord
100
AcDbLayerTableRecord
  2
YARDIMCI_GEOMETRI
 70
     0
 62
    -6
  6
Continuous
290
     0
370
    -3
390
F
  0
LAYER
  5
75
330
2
100
AcDbSymbolTableRecord
100
AcDbLayerTableRecord
  2
SAYFA_CERCEVESI
 70
     0
 62
     7
  6
Continuous
370
    25
390
F
  0
LAYER
  5
76
330
2
100
AcDbSymbolTableRecord
100
AcDbLayerTableRecord
  2
ANTET
 70
     0
 62
     7
  6
Continuous
370
    -3
390
F
  0
LAYER
  5
77
330
2
100
AcDbSymbolTableRecord
100
AcDbLayerTableRecord
  2
OLCU
 70
     0
 62
   150
  6
Continuous
370
    -3
390
F
  0
LAYER
  5
78
330
2
100
AcDbSymbolTableRecord
100
AcDbLayerTableRecord
  2
METIN
 70
     0
 62
    96
  6
Continuous
370
    -3
390
F
  0
LAYER
  5
79
330
2
100
AcDbSymbolTableRecord
100
AcDbLayerTableRecord
  2
BALON
 70
     0
 62
     5
  6
Continuous
370
    -3
390
F
  0
LAYER
  5
7A
330
2
100
AcDbSymbolTableRecord
100
AcDbLayerTableRecord
  2
VURGU
 70
     0
 62
     7
  6
Continuous
370
    -3
390
F
  0
LAYER
  5
7B
330
2
100
AcDbSymbolTableRecord
100
AcDbLayerTableRecord
  2
SILIK
 70
     0
 62
     7
  6
Continuous
370
    -3
390
F
  0
LAYER
  5
7C
330
2
100
AcDbSymbolTableRecord
100
AcDbLayerTableRecord
  2
MODEL
 70
     0
 62
     7
  6
Continuous
370
    -3
390
F
  0
LAYER
  5
7D
330
2
100
AcDbSymbolTableRecord
100
AcDbLayerTableRecord
  2
DETAYLANDıRMA
 70
     0
 62
   190
  6
Continuous
370
    -3
390
F
  0
LAYER
  5
7E
330
2
100
AcDbSymbolTableRecord
100
AcDbLayerTableRecord
  2
TOLERANS
 70
     0
 62
   230
  6
Continuous
370
    -3
390
F
  0
LAYER
  5
7F
330
2
100
AcDbSymbolTableRecord
100
AcDbLayerTableRecord
  2
MERKEZ_CIZGILERI
 70
     0
 62
    30
  6
Continuous
370
    -3
390
F
  0
LAYER
  5
80
330
2
100
AcDbSymbolTableRecord
100
AcDbLayerTableRecord
  2
KESIT-DETAY_CIZGILERI
 70
     0
 62
     7
  6
Continuous
370
    -3
390
F
  0
LAYER
  5
81
330
2
100
AcDbSymbolTableRecord
100
AcDbLayerTableRecord
  2
\U+041E\U+0421\U+0415\U+0412\U+042B\U+0415
 70
     0
 62
     7
  6
Continuous
370
    -3
390
F
  0
LAYER
  5
82
330
2
100
AcDbSymbolTableRecord
100
AcDbLayerTableRecord
  2
\U+0412\U+041E\U+0414\U+042F\U+041D\U+042B\U+0415_\U+0417\U+041D\U+0410\U+041A\U+0418
 70
     0
 62
    11
  6
Continuous
370
    -3
390
F
  0
ENDTAB
  0
TABLE
  2
STYLE
  5
3
330
0
100
AcDbSymbolTable
 70
     1
  0
STYLE
  5
11
330
3
100
AcDbSymbolTableRecord
100
AcDbTextStyleTableRecord
  2
Standard
 70
     0
 40
0.0
 41
1.0
 50
0.0
 71
     0
 42
3.5
  3
txt
  4

  0
ENDTAB
  0
TABLE
  2
VIEW
  5
6
330
0
100
AcDbSymbolTable
 70
     0
  0
ENDTAB
  0
TABLE
  2
UCS
  5
7
330
0
100
AcDbSymbolTable
 70
     0
  0
ENDTAB
  0
TABLE
  2
APPID
  5
9
330
0
100
AcDbSymbolTable
 70
     1
  0
APPID
  5
12
330
9
100
AcDbSymbolTableRecord
100
AcDbRegAppTableRecord
  2
ACAD
 70
     0
  0
ENDTAB
  0
TABLE
  2
DIMSTYLE
  5
A
330
0
100
AcDbSymbolTable
 70
     1
100
AcDbDimStyleTable
  0
DIMSTYLE
105
27
330
A
100
AcDbSymbolTableRecord
100
AcDbDimStyleTableRecord
  2
ISO-25
 70
     0
 41
2.5
 42
0.625
 43
3.75
 44
1.25
 73
     0
 74
     0
 77
     1
 78
     8
140
2.5
141
2.5
143
0.0393700787
147
0.625
171
     3
172
     1
178
     0
271
     2
272
     2
274
     3
278
    44
283
     0
284
     8
340
11
  0
ENDTAB
  0
TABLE
  2
BLOCK_RECORD
  5
1
330
0
100
AcDbSymbolTable
 70
     3
  0
BLOCK_RECORD
  5
1F
330
1
100
AcDbSymbolTableRecord
100
AcDbBlockTableRecord
  2
*Model_Space
340
22
  0
BLOCK_RECORD
  5
1B
330
1
100
AcDbSymbolTableRecord
100
AcDbBlockTableRecord
  2
*Paper_Space
340
1E
  0
BLOCK_RECORD
  5
23
330
1
100
AcDbSymbolTableRecord
100
AcDbBlockTableRecord
  2
*Paper_Space0
340
26
  0
BLOCK_RECORD
  5
A7
330
1
100
AcDbSymbolTableRecord
100
AcDbBlockTableRecord
  2
SW_CENTERMARKSYMBOL_0
340
0
102
{BLKREFS
331
B2
102
}
  0
BLOCK_RECORD
  5
C7
330
1
100
AcDbSymbolTableRecord
100
AcDbBlockTableRecord
  2
SW_CENTERMARKSYMBOL_1
340
0
102
{BLKREFS
331
D2
102
}
  0
ENDTAB
  0
ENDSEC
  0
SECTION
  2
BLOCKS
  0
BLOCK
  5
20
330
1F
100
AcDbEntity
  8
0
100
AcDbBlockBegin
  2
*Model_Space
 70
     0
 10
0.0
 20
0.0
 30
0.0
  3
*Model_Space
  1

  0
ENDBLK
  5
21
330
1F
100
AcDbEntity
  8
0
100
AcDbBlockEnd
  0
BLOCK
  5
1C
330
1B
100
AcDbEntity
 67
     1
  8
0
100
AcDbBlockBegin
  2
*Paper_Space
 70
     0
 10
0.0
 20
0.0
 30
0.0
  3
*Paper_Space
  1

  0
ENDBLK
  5
1D
330
1B
100
AcDbEntity
 67
     1
  8
0
100
AcDbBlockEnd
  0
BLOCK
  5
24
330
23
100
AcDbEntity
  8
0
100
AcDbBlockBegin
  2
*Paper_Space0
 70
     0
 10
0.0
 20
0.0
 30
0.0
  3
*Paper_Space0
  1

  0
ENDBLK
  5
25
330
23
100
AcDbEntity
  8
0
100
AcDbBlockEnd
  0
BLOCK
  5
A8
330
A7
100
AcDbEntity
  8
0
100
AcDbBlockBegin
  2
SW_CENTERMARKSYMBOL_0
 70
     0
 10
0.0
 20
0.0
 30
0.0
  3
SW_CENTERMARKSYMBOL_0
  1

  0
LINE
  5
AA
330
A7
100
AcDbEntity
  8
FORMAT
 62
     0
100
AcDbLine
 10
0.0
 20
0.0
 30
0.0
 11
0.0
 21
2.5
 31
0.0
  0
LINE
  5
AB
330
A7
100
AcDbEntity
  8
FORMAT
 62
     0
100
AcDbLine
 10
0.0
 20
0.0
 30
0.0
 11
-2.5
 21
0.0
 31
0.0
  0
LINE
  5
AC
330
A7
100
AcDbEntity
  8
FORMAT
 62
     0
100
AcDbLine
 10
0.0
 20
0.0
 30
0.0
 11
0.0
 21
-2.5
 31
0.0
  0
LINE
  5
AD
330
A7
100
AcDbEntity
  8
FORMAT
 62
     0
100
AcDbLine
 10
0.0
 20
0.0
 30
0.0
 11
2.5
 21
0.0
 31
0.0
  0
LINE
  5
AE
330
A7
100
AcDbEntity
  8
FORMAT
 62
     0
100
AcDbLine
 10
0.0
 20
5.0
 30
0.0
 11
0.0
 21
180.0
 31
0.0
  0
LINE
  5
AF
330
A7
100
AcDbEntity
  8
FORMAT
 62
     0
100
AcDbLine
 10
-5.0
 20
0.0
 30
0.0
 11
-180.0
 21
0.0
 31
0.0
  0
LINE
  5
B0
330
A7
100
AcDbEntity
  8
FORMAT
 62
     0
100
AcDbLine
 10
0.0
 20
-5.0
 30
0.0
 11
0.0
 21
-180.0
 31
0.0
  0
LINE
  5
B1
330
A7
100
AcDbEntity
  8
FORMAT
 62
     0
100
AcDbLine
 10
5.0
 20
0.0
 30
0.0
 11
180.0
 21
0.0
 31
0.0
  0
ENDBLK
  5
A9
330
A7
100
AcDbEntity
  8
0
100
AcDbBlockEnd
  0
BLOCK
  5
C8
330
C7
100
AcDbEntity
  8
0
100
AcDbBlockBegin
  2
SW_CENTERMARKSYMBOL_1
 70
     0
 10
0.0
 20
0.0
 30
0.0
  3
SW_CENTERMARKSYMBOL_1
  1

  0
LINE
  5
CA
330
C7
100
AcDbEntity
  8
FORMAT
 62
     0
100
AcDbLine
 10
0.0
 20
0.0
 30
0.0
 11
0.0
 21
2.5
 31
0.0
  0
LINE
  5
CB
330
C7
100
AcDbEntity
  8
FORMAT
 62
     0
100
AcDbLine
 10
0.0
 20
0.0
 30
0.0
 11
-2.5
 21
0.0
 31
0.0
  0
LINE
  5
CC
330
C7
100
AcDbEntity
  8
FORMAT
 62
     0
100
AcDbLine
 10
0.0
 20
0.0
 30
0.0
 11
0.0
 21
-2.5
 31
0.0
  0
LINE
  5
CD
330
C7
100
AcDbEntity
  8
FORMAT
 62
     0
100
AcDbLine
 10
0.0
 20
0.0
 30
0.0
 11
2.5
 21
0.0
 31
0.0
  0
LINE
  5
CE
330
C7
100
AcDbEntity
  8
FORMAT
 62
     0
100
AcDbLine
 10
0.0
 20
5.0
 30
0.0
 11
0.0
 21
180.0
 31
0.0
  0
LINE
  5
CF
330
C7
100
AcDbEntity
  8
FORMAT
 62
     0
100
AcDbLine
 10
-5.0
 20
0.0
 30
0.0
 11
-180.0
 21
0.0
 31
0.0
  0
LINE
  5
D0
330
C7
100
AcDbEntity
  8
FORMAT
 62
     0
100
AcDbLine
 10
0.0
 20
-5.0
 30
0.0
 11
0.0
 21
-180.0
 31
0.0
  0
LINE
  5
D1
330
C7
100
AcDbEntity
  8
FORMAT
 62
     0
100
AcDbLine
 10
5.0
 20
0.0
 30
0.0
 11
180.0
 21
0.0
 31
0.0
  0
ENDBLK
  5
C9
330
C7
100
AcDbEntity
  8
0
100
AcDbBlockEnd
  0
ENDSEC
  0
SECTION
  2
ENTITIES
  0
LINE
  5
83
330
1F
100
AcDbEntity
  8
0
  6
Continuous
 62
     7
370
    25
100
AcDbLine
 10
-43.6562264073
 20
49.9432614277
 30
0.0
 11
-43.6562264073
 21
-160.5338373948
 31
0.0
  0
LINE
  5
84
330
1F
100
AcDbEntity
  8
0
  6
Continuous
 62
     7
370
    25
100
AcDbLine
 10
311.3437628639
 20
-160.5338373948
 30
0.0
 11
311.3437628639
 21
49.9432614277
 31
0.0
  0
ARC
  5
85
330
1F
100
AcDbEntity
  8
0
  6
Continuous
 62
     7
370
    25
100
AcDbCircle
 10
311.3437682283
 20
49.9432552839
 30
0.0
 40
355.0
100
AcDbArc
 50
135.0
 51
180.0
  0
LINE
  5
86
330
1F
100
AcDbEntity
  8
0
  6
Continuous
 62
     7
370
    25
100
AcDbLine
 10
214.3323159111
 20
454.9776395987
 30
0.0
 11
60.3208577526
 21
300.9661516379
 31
0.0
  0
LINE
  5
87
330
1F
100
AcDbEntity
  8
0
  6
Continuous
 62
     7
370
    25
100
AcDbLine
 10
311.3437628639
 20
49.9432614277
 30
0.0
 11
465.3552359235
 21
203.9547046851
 31
0.0
  0
LINE
  5
88
330
1F
100
AcDbEntity
  8
0
  6
Continuous
 62
     7
370
    25
100
AcDbLine
 10
133.8437682283
 20
-160.5338373948
 30
0.0
 11
311.3437628639
 21
-160.5338373948
 31
0.0
  0
LINE
  5
89
330
1F
100
AcDbEntity
  8
0
  6
Continuous
 62
     7
370
    25
100
AcDbLine
 10
-43.6562264073
 20
-160.5338373948
 30
0.0
 11
133.8437682283
 21
-160.5338373948
 31
0.0
  0
LWPOLYLINE
  5
8A
330
1F
100
AcDbEntity
  8
0
  6
Continuous
 62
     7
370
    25
100
AcDbPolyline
 90
       37
 70
   128
 43
0.0
 10
339.8437684667
 20
329.4661721419
 10
345.4349076641
 20
323.8750180434
 10
351.0149454963
 20
318.2949802111
 10
356.5728104007
 20
312.7371153067
 10
362.0974606168
 20
307.2124799918
 10
367.5779139888
 20
301.7320117186
 10
373.0033224714
 20
296.3066181372
 10
378.3628827226
 20
290.947057886
 10
383.6459702146
 20
285.663970394
 10
388.8420945299
 20
280.4678460787
 10
393.9409440649
 20
275.3689965438
 10
398.93238603
 20
270.3775545786
 10
403.8064962518
 20
265.5034443568
 10
408.553618778
 20
260.7563218306
 10
413.1643360746
 20
256.145604534
 10
417.6294690263
 20
251.68044178
 10
421.9401961458
 20
247.3697444628
 10
426.0879045618
 20
243.2220360468
 10
430.0643688333
 20
239.2455717753
 10
433.8617211473
 20
235.448189659
 10
437.4724215162
 20
231.8375190924
 10
440.8892875803
 20
228.4206530284
 10
444.10552441
 20
225.2044161986
 10
447.1147543085
 20
222.1951564978
 10
449.9110168112
 20
219.3988939952
 10
452.4887686861
 20
216.8211719226
 10
454.8428541315
 20
214.4670864771
 10
456.9686239851
 20
212.3413166236
 10
458.8618463171
 20
210.4480644892
 10
460.5187958372
 20
208.7911447714
 10
461.9361346853
 20
207.3738059233
 10
463.1110614431
 20
206.1988791655
 10
464.0412515295
 20
205.2686592768
 10
464.7248870027
 20
204.5850536059
 10
465.1605671537
 20
204.1493734549
 10
465.3474277151
 20
203.9624830912
 10
465.3552359235
 20
203.9547046851
  0
LWPOLYLINE
  5
8B
330
1F
100
AcDbEntity
  8
0
  6
Continuous
 62
     7
370
    25
100
AcDbPolyline
 90
       37
 70
   128
 43
0.0
 10
214.3323159111
 20
454.9776395987
 10
214.3401017678
 20
454.9698313902
 10
214.5269772303
 20
454.7829708289
 10
214.9626573813
 20
454.3472608756
 10
215.6462779534
 20
453.6636552046
 10
216.5764754904
 20
452.7334651183
 10
217.7514171493
 20
451.5585383605
 10
219.1687559974
 20
450.1411995123
 10
220.8256831658
 20
448.4842499922
 10
222.7189129484
 20
446.5910276602
 10
224.844682802
 20
444.4652280043
 10
227.198775698
 20
442.1111425589
 10
229.7765052211
 20
439.5334204863
 10
232.5727751744
 20
436.737187786
 10
235.5820125234
 20
433.7279280852
 10
238.7982568038
 20
430.5116614531
 10
242.2151154173
 20
427.0948251914
 10
245.8258083356
 20
423.4840950202
 10
249.6231606496
 20
419.6867427062
 10
253.5996398223
 20
415.7102784346
 10
257.7473556888
 20
411.5625700186
 10
262.058053006
 20
407.2518428992
 10
266.5232008589
 20
402.7867397498
 10
271.1339181555
 20
398.1760224532
 10
275.8810406816
 20
393.4288701247
 10
280.7551658046
 20
388.5547599028
 10
285.7466077697
 20
383.56334774
 10
290.8454424036
 20
378.4644684027
 10
296.0415667188
 20
373.2683738898
 10
301.3246542108
 20
367.9852565955
 10
306.6842144621
 20
362.6257261466
 10
312.1096229446
 20
357.2003325652
 10
317.5900763166
 20
351.719864292
 10
323.1147265327
 20
346.1952289771
 10
328.6725914371
 20
340.6373342703
 10
334.2526292694
 20
335.0572964381
 10
339.8437684667
 20
329.4661721419
  0
LINE
  5
8C
330
1F
100
AcDbEntity
  8
0
  6
Continuous
 62
     1
370
    25
100
AcDbLine
 10
-43.6562264073
 20
49.9432614277
 30
0.0
 11
311.3437628639
 21
49.9432614277
 31
0.0
  0
LWPOLYLINE
  5
8D
330
1F
100
AcDbEntity
  8
0
  6
Continuous
 62
     1
370
    25
100
AcDbPolyline
 90
       72
 70
   128
 43
0.0
 10
60.3208577526
 20
300.9661516379
 10
60.3520160806
 20
300.935008211
 10
60.6011411441
 20
300.6858905982
 10
61.0989069832
 20
300.1881024073
 10
61.8443152201
 20
299.4427165221
 10
62.8358980906
 20
298.4511336516
 10
64.0716737402
 20
297.2153505515
 10
65.5491909278
 20
295.7378408145
 10
67.2655215752
 20
294.0214952658
 10
69.2172607672
 20
292.069770975
 10
71.400523026
 20
289.8865124415
 10
73.8109795642
 20
287.4760410021
 10
76.4438433838
 20
284.8431846331
 10
79.2938879025
 20
281.9931289385
 10
82.3554544044
 20
278.931566162
 10
85.6224669409
 20
275.6645461749
 10
89.0884360564
 20
272.1985956858
 10
92.7464811397
 20
268.5405394267
 10
96.5893378747
 20
264.6976789664
 10
100.6093805921
 20
260.6776436995
 10
104.7986241323
 20
256.4883908461
 10
109.1487536472
 20
252.1382650565
 10
113.6511301887
 20
247.6358792018
 10
118.296815854
 20
242.990203781
 10
123.0765877557
 20
238.2104477118
 10
127.9809547854
 20
233.3060583304
 10
133.000180664
 20
228.2868406008
 10
138.1242995416
 20
223.1627186965
 10
143.3431383488
 20
217.9438850115
 10
148.6463358891
 20
212.6406809519
 10
154.0233621639
 20
207.2636565398
 10
159.4635432852
 20
201.8234810065
 10
164.9560759109
 20
196.3309427928
 10
170.4900561166
 20
190.7969793509
 10
176.0544961584
 20
185.2325281333
 10
181.6383524132
 20
179.6486756037
 10
187.2305346918
 20
174.0564784239
 10
192.8199379039
 20
168.4670826624
 10
198.3954718602
 20
162.8915449809
 10
203.9460575474
 20
157.3409518431
 10
209.4606867326
 20
151.8263301085
 10
214.9283996117
 20
146.3586172293
 10
220.3383481395
 20
140.9486910533
 10
225.6797811282
 20
135.607250614
 10
230.9421038521
 20
130.3449055384
 10
236.1148705971
 20
125.1721462439
 10
241.1877995622
 20
120.0992247294
 10
246.1508324635
 20
115.1361843775
 10
250.9940972817
 20
110.2929195593
 10
255.707997669
 20
105.5790266226
 10
260.283160795
 20
101.0038634966
 10
264.7105193031
 20
96.5765198897
 10
268.9812666071
 20
92.3057576846
 10
273.0869239462
 20
88.2001003455
 10
277.0193552864
 20
84.2676690053
 10
280.7707375181
 20
80.5162867735
 10
284.3336200607
 20
76.9534042309
 10
287.700954665
 20
73.5860696267
 10
290.8660209072
 20
70.4210033845
 10
293.8225602997
 20
67.4644490908
 10
296.5647017849
 20
64.7223225068
 10
299.0869915378
 20
62.2000327538
 10
301.3844227684
 20
59.9026015233
 10
303.4524357212
 20
57.8345885705
 10
305.2869176758
 20
56.0001066159
 10
306.8842476499
 20
54.4027766417
 10
308.241221894
 20
53.0458023976
 10
309.3551880014
 20
51.9318362902
 10
310.2238958967
 20
51.0631283949
 10
310.8456319463
 20
50.4413923453
 10
311.2191742552
 20
50.0678500365
 10
311.3437628639
 20
49.9432614277
  0
LINE
  5
8E
330
1F
100
AcDbEntity
  8
0
  6
Continuous
 62
     7
370
    25
100
AcDbLine
 10
-613.7118472693
 20
329.4661721419
 30
0.0
 11
-613.7118472693
 21
175.4547139834
 31
0.0
  0
LINE
  5
8F
330
1F
100
AcDbEntity
  8
0
  6
Continuous
 62
     7
370
    25
100
AcDbLine
 10
-258.7118579982
 20
175.4547139834
 30
0.0
 11
-258.7118579982
 21
329.4661721419
 31
0.0
  0
LINE
  5
90
330
1F
100
AcDbEntity
  8
0
  6
Continuous
 62
     7
370
    25
100
AcDbLine
 10
-613.7118472693
 20
175.4547139834
 30
0.0
 11
-613.7118472693
 21
49.9432614277
 31
0.0
  0
LINE
  5
91
330
1F
100
AcDbEntity
  8
0
  6
Continuous
 62
     7
370
    25
100
AcDbLine
 10
-258.7118579982
 20
49.9432614277
 30
0.0
 11
-258.7118579982
 21
175.4547139834
 31
0.0
  0
LINE
  5
92
330
1F
100
AcDbEntity
  8
0
  6
Continuous
 62
     7
370
    25
100
AcDbLine
 10
-613.7118472693
 20
49.9432614277
 30
0.0
 11
-613.7118472693
 21
-160.5338373948
 31
0.0
  0
LINE
  5
93
330
1F
100
AcDbEntity
  8
0
  6
Continuous
 62
     7
370
    25
100
AcDbLine
 10
-258.7118579982
 20
-160.5338373948
 30
0.0
 11
-258.7118579982
 21
49.9432614277
 31
0.0
  0
LWPOLYLINE
  5
94
330
1F
100
AcDbEntity
  8
0
  6
Continuous
 62
     7
370
    25
100
AcDbPolyline
 90
      142
 70
   128
 43
0.0
 10
-613.7118472693
 20
329.4661721419
 10
-613.5356410382
 20
323.8750180434
 10
-613.0073799727
 20
318.2949802111
 10
-612.1281071541
 20
312.7371153067
 10
-610.8995660184
 20
307.2124799918
 10
-609.3242003558
 20
301.7320117186
 10
-607.4051245091
 20
296.3066181372
 10
-605.1461829779
 20
290.947057886
 10
-602.5518163083
 20
285.663970394
 10
-599.6272101042
 20
280.4678460787
 10
-596.3781460164
 20
275.3689965438
 10
-592.8110911486
 20
270.3775545786
 10
-588.9331384537
 20
265.5034443568
 10
-584.7519471286
 20
260.7563218306
 10
-580.2758618233
 20
256.145604534
 10
-575.513748729
 20
251.68044178
 10
-570.4750551818
 20
247.3697444628
 10
-565.1697947619
 20
243.2220360468
 10
-559.608510041
 20
239.2455717753
 10
-553.8022278783
 20
235.448189659
 10
-547.7624817727
 20
231.8375190924
 10
-541.5012597082
 20
228.4206530284
 10
-535.0309967039
 20
225.2044161986
 10
-528.3645375607
 20
222.1951564978
 10
-521.5151145098
 20
219.3988939952
 10
-514.4963323114
 20
216.8211719226
 10
-507.3221235511
 20
214.4670864771
 10
-500.0067337392
 20
212.3413166236
 10
-492.5646803317
 20
210.4480644892
 10
-485.0107490061
 20
208.7911447714
 10
-477.3599303303
 20
207.3738059233
 10
-469.6274160383
 20
206.1988791655
 10
-461.8285561887
 20
205.2686592768
 10
-453.978838676
 20
204.5850536059
 10
-446.0938454581
 20
204.1493734549
 10
-438.1892325332
 20
203.9624830912
 10
-430.2806940836
 20
204.0247997473
 10
-422.3839317424
 20
204.3361446093
 10
-414.5146238593
 20
204.895951433
 10
-406.6883924393
 20
205.703057928
 10
-398.9207765994
 20
206.7558845709
 10
-391.2271990416
 20
208.0523451995
 10
-383.6229353187
 20
209.5898470114
 10
-376.1230840323
 20
211.3653799723
 10
-368.7425314424
 20
213.3753678034
 10
-361.4959328411
 20
215.6158765982
 10
-354.3976752994
 20
218.0823764037
 10
-347.4618553159
 20
220.7700690459
 10
-340.702234113
 20
223.6735305022
 10
-334.1322450874
 20
226.7870387267
 10
-327.7649193046
 20
230.1044246386
 10
-321.6129078505
 20
233.6190721224
 10
-315.6884222267
 20
237.3240074347
 10
-310.0032194493
 20
241.2118992041
 10
-304.5686020491
 20
245.2749988268
 10
-299.3953510163
 20
249.5052596758
 10
-294.4937332509
 20
253.8942774962
 10
-289.8734792111
 20
258.4333202075
 10
-285.5437680123
 20
263.1134173106
 10
-281.5131976245
 20
267.9252108763
 10
-277.78975507
 20
272.8592237662
 10
-274.3808611272
 20
277.9056212138
 10
-271.2932511208
 20
283.0543896388
 10
-268.5330941317
 20
288.2952770423
 10
-266.1058290837
 20
293.6179420184
 10
-264.0162988541
 20
299.011745138
 10
-262.2686459658
 20
304.4660469721
 10
-260.8663423894
 20
309.969969673
 10
-259.8121746419
 20
315.5125757884
 10
-259.1082288859
 20
321.0829278658
 10
-258.7559058306
 20
326.6699096392
 10
-258.7559058306
 20
332.2624346446
 10
-259.1082288859
 20
337.8494164179
 10
-259.8121746419
 20
343.4197386931
 10
-260.8663423894
 20
348.9623746108
 10
-262.2686459658
 20
354.4662675093
 10
-264.0162988541
 20
359.9205693434
 10
-266.1058290837
 20
365.3143724631
 10
-268.5330941317
 20
370.6370672415
 10
-271.2932511208
 20
375.8779248427
 10
-274.3808611272
 20
381.0266932677
 10
-277.78975507
 20
386.0731205176
 10
-281.5131976245
 20
391.0070738028
 10
-285.5437680123
 20
395.8188971709
 10
-289.8734792111
 20
400.498994274
 10
-294.4937332509
 20
405.0380667876
 10
-299.3953510163
 20
409.4270548056
 10
-304.5686020491
 20
413.6573156546
 10
-310.0032194493
 20
417.7204450797
 10
-315.6884222267
 20
421.6083368491
 10
-321.6129078505
 20
425.313242359
 10
-327.7649193046
 20
428.8278898429
 10
-334.1322450874
 20
432.1453055571
 10
-340.702234113
 20
435.2588137816
 10
-347.4618553159
 20
438.1622752379
 10
-354.3976752994
 20
440.8499082755
 10
-361.4959328411
 20
443.3164676856
 10
-368.7425314424
 20
445.556946678
 10
-376.1230840323
 20
447.5669345091
 10
-383.6229353187
 20
449.3424376677
 10
-391.2271990416
 20
450.8799990843
 10
-398.9207765994
 20
452.1764597128
 10
-406.6883924393
 20
453.2292565535
 10
-414.5146238593
 20
454.0363630484
 10
-422.3839317424
 20
454.5961698722
 10
-430.2806940836
 20
454.9075445365
 10
-438.1892325332
 20
454.9698313902
 10
-446.0938454581
 20
454.7829708289
 10
-453.978838676
 20
454.3472608756
 10
-461.8285561887
 20
453.6636552046
 10
-469.6274160383
 20
452.7334651183
 10
-477.3599303303
 20
451.5585383605
 10
-485.0107490061
 20
450.1411995123
 10
-492.5646803317
 20
448.4842499922
 10
-500.0067337392
 20
446.5910276602
 10
-507.3221235511
 20
444.4652280043
 10
-514.4963323114
 20
442.1111425589
 10
-521.5151145098
 20
439.5334204863
 10
-528.3645375607
 20
436.737187786
 10
-535.0309967039
 20
433.7279280852
 10
-541.5012597082
 20
430.5116614531
 10
-547.7624817727
 20
427.0948251914
 10
-553.8022278783
 20
423.4840950202
 10
-559.608510041
 20
419.6867427062
 10
-565.1697947619
 20
415.7102784346
 10
-570.4750551818
 20
411.5625700186
 10
-575.513748729
 20
407.2518428992
 10
-580.2758618233
 20
402.7867397498
 10
-584.7519471286
 20
398.1760224532
 10
-588.9331384537
 20
393.4288701247
 10
-592.8110911486
 20
388.5547599028
 10
-596.3781460164
 20
383.56334774
 10
-599.6272101042
 20
378.4644684027
 10
-602.5518163083
 20
373.2683738898
 10
-605.1461829779
 20
367.9852565955
 10
-607.4051245091
 20
362.6257261466
 10
-609.3242003558
 20
357.2003325652
 10
-610.8995660184
 20
351.719864292
 10
-612.1281071541
 20
346.1952289771
 10
-613.0073799727
 20
340.6373342703
 10
-613.5356410382
 20
335.0572964381
 10
-613.7118472693
 20
329.4661721419
  0
LWPOLYLINE
  5
95
330
1F
100
AcDbEntity
  8
0
  6
Continuous
 62
     7
370
    25
100
AcDbPolyline
 90
      133
 70
   128
 43
0.0
 10
-592.6118477223
 20
329.4661721419
 10
-592.434702718
 20
334.7283086012
 10
-591.9036551354
 20
339.9785241316
 10
-591.0199268696
 20
345.2049574088
 10
-589.7854997752
 20
350.3957471083
 10
-588.2031752703
 20
355.5390915106
 10
-586.2765594361
 20
360.62336771
 10
-584.0099736092
 20
365.6370720099
 10
-581.4086033938
 20
370.5688795279
 10
-578.478290045
 20
375.4075249861
 10
-575.2257241843
 20
380.1421007346
 10
-571.6582222817
 20
384.7619375418
 10
-567.7839054702
 20
389.2564257811
 10
-563.6115356324
 20
393.6155518721
 10
-559.1505601046
 20
397.8293022345
 10
-554.4110893247
 20
401.8881997298
 10
-549.4038595793
 20
405.7830652426
 10
-544.1402106521
 20
409.505017681
 10
-538.6320709226
 20
413.0456527899
 10
-532.8919201133
 20
416.3969835471
 10
-526.9327520368
 20
419.5513209532
 10
-520.7680745957
 20
422.5016316603
 10
-514.411850178
 20
425.2412399481
 10
-507.8784807561
 20
427.7638277243
 10
-501.1827631829
 20
430.0637325476
 10
-494.33985939
 20
432.135768814
 10
-487.3652814863
 20
433.9752277564
 10
-480.2748247025
 20
435.5779370497
 10
-473.0845487652
 20
436.9402608107
 10
-465.8107480941
 20
438.0591592024
 10
-458.4698940603
 20
438.9320096205
 10
-451.0786182223
 20
439.5569047164
 10
-443.653664363
 20
439.9324139784
 10
-436.2118526337
 20
440.0576433371
 10
-428.7700409045
 20
439.9324139784
 10
-421.3450870452
 20
439.5569047164
 10
-413.9538112072
 20
438.9320096205
 10
-406.6129571734
 20
438.0591592024
 10
-399.3391565023
 20
436.9402608107
 10
-392.1488805649
 20
435.5779370497
 10
-385.0584237812
 20
433.9752277564
 10
-378.0838458774
 20
432.135768814
 10
-371.2409420846
 20
430.0637325476
 10
-364.5452245114
 20
427.7638277243
 10
-358.0118550894
 20
425.2412399481
 10
-351.6556306718
 20
422.5016316603
 10
-345.4909532306
 20
419.5513209532
 10
-339.5317851541
 20
416.3969835471
 10
-333.7916343448
 20
413.0456527899
 10
-328.2834946153
 20
409.505017681
 10
-323.0198456881
 20
405.7830652426
 10
-318.0126159427
 20
401.8881997298
 10
-313.2731451628
 20
397.8293022345
 10
-308.8121696351
 20
393.6155518721
 10
-304.6397997973
 20
389.2564257811
 10
-300.7654829858
 20
384.7619375418
 10
-297.1979810832
 20
380.1421007346
 10
-293.9454152224
 20
375.4075249861
 10
-291.0151018737
 20
370.5688795279
 10
-288.4137316582
 20
365.6370720099
 10
-286.1471458314
 20
360.62336771
 10
-284.2205299971
 20
355.5390915106
 10
-282.6382054923
 20
350.3957471083
 10
-281.4037783978
 20
345.2049574088
 10
-280.5200501321
 20
339.9785241316
 10
-279.9890025494
 20
334.7283086012
 10
-279.8118575452
 20
329.4661721419
 10
-279.9890025494
 20
324.2040058802
 10
-280.5200501321
 20
318.9537605475
 10
-281.4037783978
 20
313.7273570727
 10
-282.6382054923
 20
308.5365971755
 10
-284.2205299971
 20
303.3932229708
 10
-286.1471458314
 20
298.3089467715
 10
-288.4137316582
 20
293.2952126692
 10
-291.0151018737
 20
288.3634647559
 10
-293.9454152224
 20
283.5247894953
 10
-297.1979810832
 20
278.7902137469
 10
-300.7654829858
 20
274.170406742
 10
-304.6397997973
 20
269.6758887004
 10
-308.8121696351
 20
265.3167924117
 10
-313.2731451628
 20
261.1030420493
 10
-318.0126159427
 20
257.044144554
 10
-323.0198456881
 20
253.1492790412
 10
-328.2834946153
 20
249.4273266028
 10
-333.7916343448
 20
245.8866914939
 10
-339.5317851541
 20
242.5353607367
 10
-345.4909532306
 20
239.3809935282
 10
-351.6556306718
 20
236.4306828211
 10
-358.0118550894
 20
233.6911043357
 10
-364.5452245114
 20
231.1685165595
 10
-371.2409420846
 20
228.8685819338
 10
-378.0838458774
 20
226.7965456675
 10
-385.0584237812
 20
224.9571165274
 10
-392.1488805649
 20
223.3544072341
 10
-399.3391565023
 20
221.9920536707
 10
-406.6129571734
 20
220.8731850813
 10
-413.9538112072
 20
220.0003346633
 10
-421.3450870452
 20
219.3754395674
 10
-428.7700409045
 20
218.9999303053
 10
-436.2118526337
 20
218.8746711444
 10
-443.653664363
 20
218.9999303053
 10
-451.0786182223
 20
219.3754395674
 10
-458.4698940603
 20
220.0003346633
 10
-465.8107480941
 20
220.8731850813
 10
-473.0845487652
 20
221.9920536707
 10
-480.2748247025
 20
223.3544072341
 10
-487.3652814863
 20
224.9571165274
 10
-494.33985939
 20
226.7965456675
 10
-501.1827631829
 20
228.8685819338
 10
-507.8784807561
 20
231.1685165595
 10
-514.411850178
 20
233.6911043357
 10
-520.7680745957
 20
236.4306828211
 10
-526.9327520368
 20
239.3809935282
 10
-532.8919201133
 20
242.5353607367
 10
-538.6320709226
 20
245.8866914939
 10
-544.1402106521
 20
249.4273266028
 10
-549.4038595793
 20
253.1492790412
 10
-554.4110893247
 20
257.044144554
 10
-559.1505601046
 20
261.1030420493
 10
-563.6115356324
 20
265.3167924117
 10
-567.7839054702
 20
269.6758887004
 10
-571.6582222817
 20
274.170406742
 10
-575.2257241843
 20
278.7902137469
 10
-578.478290045
 20
283.5247894953
 10
-581.4086033938
 20
288.3634647559
 10
-584.0099736092
 20
293.2952126692
 10
-586.2765594361
 20
298.3089467715
 10
-588.2031752703
 20
303.3932229708
 10
-589.7854997752
 20
308.5365971755
 10
-591.0199268696
 20
313.7273570727
 10
-591.9036551354
 20
318.9537605475
 10
-592.434702718
 20
324.2040058802
 10
-592.6118477223
 20
329.4661721419
  0
LINE
  5
96
330
1F
100
AcDbEntity
  8
0
  6
Continuous
 62
     7
370
    25
100
AcDbLine
 10
-613.7118472693
 20
-160.5338373948
 30
0.0
 11
-258.7118579982
 21
-160.5338373948
 31
0.0
  0
LWPOLYLINE
  5
97
330
1F
100
AcDbEntity
  8
0
  6
Continuous
 62
     1
370
    25
100
AcDbPolyline
 90
       37
 70
   128
 43
0.0
 10
-436.2118526337
 20
49.9432614277
 10
-428.3047861395
 20
50.0678500365
 10
-420.4134198812
 20
50.4413923453
 10
-412.5534187046
 20
51.0631283949
 10
-404.7403878508
 20
51.9318362902
 10
-396.9898431537
 20
53.0458023976
 10
-389.3171681998
 20
54.4027766417
 10
-381.7375994263
 20
56.0001066159
 10
-374.2661832807
 20
57.8345885705
 10
-366.9177575944
 20
59.9026015233
 10
-359.7069068787
 20
62.2000327538
 10
-352.6479511497
 20
64.7223225068
 10
-345.7548974989
 20
67.4644490908
 10
-339.0414400933
 20
70.4210033845
 10
-332.5209080217
 20
73.5860696267
 10
-326.2062503932
 20
76.9534042309
 10
-320.1099916337
 20
80.5162867735
 10
-314.2442389367
 20
84.2676690053
 10
-308.6206450103
 20
88.2001003455
 10
-303.2503708241
 20
92.3057576846
 10
-298.1440856097
 20
96.5765198897
 10
-293.3119221566
 20
101.0038634966
 10
-288.7634619115
 20
105.5790266226
 10
-284.5077498791
 20
110.2929195593
 10
-280.553235018
 20
115.1361843775
 10
-276.9077702401
 20
120.0992247294
 10
-273.5785826085
 20
125.1721462439
 10
-270.5722882388
 20
130.3449055384
 10
-267.8948624966
 20
135.607250614
 10
-265.5516101954
 20
140.9486910533
 10
-263.5471953986
 20
146.3586172293
 10
-261.885581815
 20
151.8263301085
 10
-260.5700775025
 20
157.3409518431
 10
-259.6032901642
 20
162.8915449809
 10
-258.98714205
 20
168.4670826624
 10
-258.7228699563
 20
174.0564784239
 10
-258.7118579982
 20
175.4547139834
  0
LWPOLYLINE
  5
98
330
1F
100
AcDbEntity
  8
0
  6
Continuous
 62
     1
370
    25
100
AcDbPolyline
 90
       37
 70
   128
 43
0.0
 10
-613.7118472693
 20
175.4547139834
 10
-613.7008353112
 20
174.0564784239
 10
-613.4365632174
 20
168.4670826624
 10
-612.8204151032
 20
162.8915449809
 10
-611.853627765
 20
157.3409518431
 10
-610.5381234524
 20
151.8263301085
 10
-608.8765098689
 20
146.3586172293
 10
-606.872095072
 20
140.9486910533
 10
-604.5288427708
 20
135.607250614
 10
-601.8514170287
 20
130.3449055384
 10
-598.845122659
 20
125.1721462439
 10
-595.5159350274
 20
120.0992247294
 10
-591.8704702494
 20
115.1361843775
 10
-587.9159553883
 20
110.2929195593
 10
-583.660243356
 20
105.5790266226
 10
-579.1117831109
 20
101.0038634966
 10
-574.2796196578
 20
96.5765198897
 10
-569.1733344433
 20
92.3057576846
 10
-563.8030602572
 20
88.2001003455
 10
-558.1794663308
 20
84.2676690053
 10
-552.3137136338
 20
80.5162867735
 10
-546.2174548743
 20
76.9534042309
 10
-539.9027972458
 20
73.5860696267
 10
-533.3822651742
 20
70.4210033845
 10
-526.6688077686
 20
67.4644490908
 10
-519.7757541177
 20
64.7223225068
 10
-512.7167983887
 20
62.2000327538
 10
-505.5059476731
 20
59.9026015233
 10
-498.1575219867
 20
57.8345885705
 10
-490.6861058412
 20
56.0001066159
 10
-483.1065370677
 20
54.4027766417
 10
-475.4338621137
 20
53.0458023976
 10
-467.6833174167
 20
51.9318362902
 10
-459.8702865628
 20
51.0631283949
 10
-452.0102853862
 20
50.4413923453
 10
-444.118919128
 20
50.0678500365
 10
-436.2118526337
 20
49.9432614277
  0
LWPOLYLINE
  5
99
330
1F
100
AcDbEntity
  8
0
  6
Continuous
 62
     1
370
    25
100
AcDbPolyline
 90
       35
 70
   128
 43
0.0
 10
-548.4669043658
 20
252.4604281615
 10
-544.1402106521
 20
255.4935297202
 10
-538.6320709226
 20
259.0341946314
 10
-532.8919201133
 20
262.3854955863
 10
-526.9327520368
 20
265.5398925971
 10
-520.7680745957
 20
268.4902033042
 10
-514.411850178
 20
271.2297519873
 10
-507.8784807561
 20
273.7523695658
 10
-501.1827631829
 20
276.0522743891
 10
-494.33985939
 20
278.1243106555
 10
-487.3652814863
 20
279.9637695979
 10
-480.2748247025
 20
281.5664788912
 10
-473.0845487652
 20
282.9288026522
 10
-465.8107480941
 20
284.0476712416
 10
-458.4698940603
 20
284.920551462
 10
-451.0786182223
 20
285.5454465579
 10
-443.653664363
 20
285.92095582
 10
-436.2118526337
 20
286.0462149809
 10
-428.7700409045
 20
285.92095582
 10
-421.3450870452
 20
285.5454465579
 10
-413.9538112072
 20
284.920551462
 10
-406.6129571734
 20
284.0476712416
 10
-399.3391565023
 20
282.9288026522
 10
-392.1488805649
 20
281.5664788912
 10
-385.0584237812
 20
279.9637695979
 10
-378.0838458774
 20
278.1243106555
 10
-371.2409420846
 20
276.0522743891
 10
-364.5452245114
 20
273.7523695658
 10
-358.0118550894
 20
271.2297519873
 10
-351.6556306718
 20
268.4902033042
 10
-345.4909532306
 20
265.5398925971
 10
-339.5317851541
 20
262.3854955863
 10
-333.7916343448
 20
259.0341946314
 10
-328.2834946153
 20
255.4935297202
 10
-323.9568009017
 20
252.4604281615
  0
LINE
  5
9A
330
1F
100
AcDbEntity
  8
0
  6
Continuous
 62
     1
370
    25
100
AcDbLine
 10
-436.2118526337
 20
49.9432614277
 30
0.0
 11
-258.7118579982
 21
49.9432614277
 31
0.0
  0
LINE
  5
9B
330
1F
100
AcDbEntity
  8
0
  6
Continuous
 62
     1
370
    25
100
AcDbLine
 10
-613.7118472693
 20
49.9432614277
 30
0.0
 11
-436.2118526337
 21
49.9432614277
 31
0.0
  0
LINE
  5
9C
330
1F
100
AcDbEntity
  8
0
  6
Continuous
 62
     7
370
    25
100
AcDbLine
 10
339.8437684667
 20
953.5664575117
 30
0.0
 11
185.8323140335
 21
953.5664575117
 31
0.0
  0
LINE
  5
9D
330
1F
100
AcDbEntity
  8
0
  6
Continuous
 62
     7
370
    25
100
AcDbLine
 10
185.8323140335
 20
598.5664682405
 30
0.0
 11
339.8437684667
 21
598.5664682405
 31
0.0
  0
LINE
  5
9E
330
1F
100
AcDbEntity
  8
0
  6
Continuous
 62
     7
370
    25
100
AcDbLine
 10
185.8323140335
 20
953.5664575117
 30
0.0
 11
133.8437682283
 21
953.5664575117
 31
0.0
  0
LINE
  5
9F
330
1F
100
AcDbEntity
  8
0
  6
Continuous
 62
     7
370
    25
100
AcDbLine
 10
133.8437682283
 20
598.5664682405
 30
0.0
 11
185.8323140335
 21
598.5664682405
 31
0.0
  0
CIRCLE
  5
A0
330
1F
100
AcDbEntity
  8
0
  6
Continuous
 62
     7
370
    25
100
AcDbCircle
 10
133.8437682283
 20
776.0664628761
 30
0.0
 40
156.4
  0
CIRCLE
  5
A1
330
1F
100
AcDbEntity
  8
0
  6
Continuous
 62
     7
370
    25
100
AcDbCircle
 10
133.8437682283
 20
776.0664628761
 30
0.0
 40
177.5
  0
LWPOLYLINE
  5
A2
330
1F
100
AcDbEntity
  8
0
  6
Continuous
 62
     7
370
    25
100
AcDbPolyline
 90
       72
 70
   128
 43
0.0
 10
339.8437684667
 20
953.5664575117
 10
345.4349076641
 20
953.3902512806
 10
351.0149454963
 20
952.8619902151
 10
356.5728104007
 20
951.9827173965
 10
362.0974606168
 20
950.7541762607
 10
367.5779139888
 20
949.1788105982
 10
373.0033224714
 20
947.2597347515
 10
378.3628827226
 20
945.0007932203
 10
383.6459702146
 20
942.4064265507
 10
388.8420945299
 20
939.4818203466
 10
393.9409440649
 20
936.2327562588
 10
398.93238603
 20
932.665701391
 10
403.8064962518
 20
928.7877486961
 10
408.553618778
 20
924.6065573709
 10
413.1643360746
 20
920.1304720657
 10
417.6294690263
 20
915.3683589714
 10
421.9401961458
 20
910.3296654241
 10
426.0879045618
 20
905.0244050043
 10
430.0643688333
 20
899.4631202834
 10
433.8617211473
 20
893.6568381207
 10
437.4724215162
 20
887.6170920151
 10
440.8892875803
 20
881.3558699506
 10
444.10552441
 20
874.8856069463
 10
447.1147543085
 20
868.2191478031
 10
449.9110168112
 20
861.3697247522
 10
452.4887686861
 20
854.3509425538
 10
454.8428541315
 20
847.1767337935
 10
456.9686239851
 20
839.8613439815
 10
458.8618463171
 20
832.4192905741
 10
460.5187958372
 20
824.8653592484
 10
461.9361346853
 20
817.2145405727
 10
463.1110614431
 20
809.4820262807
 10
464.0412515295
 20
801.6831664311
 10
464.7248870027
 20
793.8334489184
 10
465.1605671537
 20
785.9484557005
 10
465.3474277151
 20
778.0438427756
 10
465.2851408613
 20
770.135304326
 10
464.973766197
 20
762.2385419848
 10
464.4139891756
 20
754.3692341017
 10
463.6068826807
 20
746.5430026817
 10
462.5540560377
 20
738.7753868418
 10
461.2575954092
 20
731.081809284
 10
459.7200637949
 20
723.4775455611
 10
457.9445606363
 20
715.9776942747
 10
455.9345430029
 20
708.5971416848
 10
453.6940640104
 20
701.3505430835
 10
451.2275344026
 20
694.2522855418
 10
448.5398715627
 20
687.3164655583
 10
445.6364101064
 20
680.5568443554
 10
442.522901882
 20
673.9868553298
 10
439.20551597
 20
667.619529547
 10
435.6908684862
 20
661.4675180929
 10
431.9859331739
 20
655.5430324691
 10
428.0980414045
 20
649.8578296917
 10
424.0349417818
 20
644.4232122915
 10
419.8046809328
 20
639.2499612587
 10
415.4156631124
 20
634.3483434933
 10
410.8766204012
 20
629.7280894535
 10
406.196523298
 20
625.3983782547
 10
401.38469993
 20
621.3678078669
 10
396.4507168424
 20
617.6443653124
 10
391.4043193948
 20
614.2354713695
 10
386.2555509699
 20
611.1478613632
 10
381.0146486652
 20
608.3877043741
 10
375.6919985903
 20
605.9604393261
 10
370.2981805694
 20
603.8709090965
 10
364.8438936365
 20
602.1232562082
 10
359.3399709356
 20
600.7209526318
 10
353.7973350179
 20
599.6667848843
 10
348.2270127428
 20
598.9628391283
 10
342.6400309694
 20
598.610516073
 10
339.8437684667
 20
598.5664682405
  0
LWPOLYLINE
  5
A3
330
1F
100
AcDbEntity
  8
0
  6
Continuous
 62
     7
370
    25
100
AcDbPolyline
 90
       31
 70
   128
 43
0.0
 10
254.515770663
 20
875.5613224523
 10
252.9129794133
 20
872.7465303557
 10
249.7585898531
 20
866.7873622792
 10
246.808279146
 20
860.6226848381
 10
244.0687155616
 20
854.2664604204
 10
241.5461203349
 20
847.7330909985
 10
239.2462006104
 20
841.0373734253
 10
237.1741643441
 20
834.1944696324
 10
235.3347128523
 20
827.2198917287
 10
233.7320035589
 20
820.1294349449
 10
232.3696648967
 20
812.9391590076
 10
231.2508037579
 20
805.6653583365
 10
230.3779309881
 20
798.3245043027
 10
229.7530358923
 20
790.9332284646
 10
229.3775266302
 20
783.5082746053
 10
229.2522674692
 20
776.0664628761
 10
229.3775266302
 20
768.6246511469
 10
229.7530358923
 20
761.1996972876
 10
230.3779309881
 20
753.8084214496
 10
231.2508037579
 20
746.4675674158
 10
232.3696648967
 20
739.1937667447
 10
233.7320035589
 20
732.0034908073
 10
235.3347128523
 20
724.9130340236
 10
237.1741643441
 20
717.9384561198
 10
239.2462006104
 20
711.095552327
 10
241.5461203349
 20
704.3998347538
 10
244.0687155616
 20
697.8664653318
 10
246.808279146
 20
691.5102409141
 10
249.7585898531
 20
685.345563473
 10
252.9129794133
 20
679.3863953965
 10
254.515770663
 20
676.5716032999
  0
LWPOLYLINE
  5
A4
330
1F
100
AcDbEntity
  8
0
  6
Continuous
 62
     1
370
    25
100
AcDbPolyline
 90
       37
 70
   128
 43
0.0
 10
311.3437628639
 20
776.0664628761
 10
311.2191742552
 20
768.1593963819
 10
310.8456319463
 20
760.2680301236
 10
310.2238958967
 20
752.408028947
 10
309.3551880014
 20
744.5949980932
 10
308.241221894
 20
736.8444533961
 10
306.8842476499
 20
729.1717784422
 10
305.2869176758
 20
721.5922096687
 10
303.4524357212
 20
714.1207935231
 10
301.3844227684
 20
706.7723678368
 10
299.0869915378
 20
699.5615171211
 10
296.5647017849
 20
692.5025613921
 10
293.8225602997
 20
685.6095077413
 10
290.8660209072
 20
678.8960503357
 10
287.700954665
 20
672.3755182641
 10
284.3336200607
 20
666.0608606356
 10
280.7707375181
 20
659.9646018761
 10
277.0193552864
 20
654.0988491791
 10
273.0869239462
 20
648.4752552526
 10
268.9812666071
 20
643.1049810665
 10
264.7105193031
 20
637.9986958521
 10
260.283160795
 20
633.166532399
 10
255.707997669
 20
628.6180721538
 10
250.9940972817
 20
624.3623601215
 10
246.1508324635
 20
620.4078452604
 10
241.1877995622
 20
616.7623804825
 10
236.1148705971
 20
613.4331928509
 10
230.9421038521
 20
610.4268984812
 10
225.6797811282
 20
607.749472739
 10
220.3383481395
 20
605.4062204378
 10
214.9283996117
 20
603.401805641
 10
209.4606867326
 20
601.7401920574
 10
203.9460575474
 20
600.4246877449
 10
198.3954718602
 20
599.4579004066
 10
192.8199379039
 20
598.8417522924
 10
187.2305346918
 20
598.5774801987
 10
185.8323140335
 20
598.5664682405
  0
LWPOLYLINE
  5
A5
330
1F
100
AcDbEntity
  8
0
  6
Continuous
 62
     1
370
    25
100
AcDbPolyline
 90
       37
 70
   128
 43
0.0
 10
185.8323140335
 20
953.5664575117
 10
187.2305346918
 20
953.5554455536
 10
192.8199379039
 20
953.2911734598
 10
198.3954718602
 20
952.6750253456
 10
203.9460575474
 20
951.7082380073
 10
209.4606867326
 20
950.3927336948
 10
214.9283996117
 20
948.7311201113
 10
220.3383481395
 20
946.7267053144
 10
225.6797811282
 20
944.3834530132
 10
230.9421038521
 20
941.7060272711
 10
236.1148705971
 20
938.6997329014
 10
241.1877995622
 20
935.3705452698
 10
246.1508324635
 20
931.7250804918
 10
250.9940972817
 20
927.7705656307
 10
255.707997669
 20
923.5148535984
 10
260.283160795
 20
918.9663933533
 10
264.7105193031
 20
914.1342299002
 10
268.9812666071
 20
909.0279446857
 10
273.0869239462
 20
903.6576704996
 10
277.0193552864
 20
898.0340765732
 10
280.7707375181
 20
892.1683238762
 10
284.3336200607
 20
886.0720651167
 10
287.700954665
 20
879.7574074881
 10
290.8660209072
 20
873.2368754166
 10
293.8225602997
 20
866.523418011
 10
296.5647017849
 20
859.6303643601
 10
299.0869915378
 20
852.5714086311
 10
301.3844227684
 20
845.3605579155
 10
303.4524357212
 20
838.0121322291
 10
305.2869176758
 20
830.5407160836
 10
306.8842476499
 20
822.9611473101
 10
308.241221894
 20
815.2884723561
 10
309.3551880014
 20
807.5379276591
 10
310.2238958967
 20
799.7248968052
 10
310.8456319463
 20
791.8648956286
 10
311.2191742552
 20
783.9735293703
 10
311.3437628639
 20
776.0664628761
  0
LWPOLYLINE
  5
A6
330
1F
100
AcDbEntity
  8
0
  6
Continuous
 62
     1
370
    25
100
AcDbPolyline
 90
       59
 70
   128
 43
0.0
 10
164.2979530883
 20
929.4727997797
 10
159.7593797636
 20
928.0577855127
 10
154.6750886631
 20
926.1311696785
 10
149.6613769126
 20
923.8645838516
 10
144.7296057162
 20
921.2632136362
 10
139.8909448911
 20
918.3329002874
 10
135.1563558714
 20
915.0803344267
 10
130.5365642332
 20
911.5128325241
 10
126.0420352486
 20
907.6385157125
 10
121.6829501358
 20
903.4661458748
 10
117.4691839409
 20
899.005170347
 10
113.4102827203
 20
894.2656995671
 10
109.5154414219
 20
889.2584698217
 10
105.793481533
 20
883.9948208945
 10
102.2528333855
 20
878.486681165
 10
98.9015249801
 20
872.7465303557
 10
95.7471391452
 20
866.7873622792
 10
92.7968247128
 20
860.6226848381
 10
90.0572648537
 20
854.2664604204
 10
87.534669627
 20
847.7330909985
 10
85.2347461772
 20
841.0373734253
 10
83.1627099109
 20
834.1944696324
 10
81.3232546938
 20
827.2198917287
 10
79.7205454004
 20
820.1294349449
 10
78.3582141888
 20
812.9391590076
 10
77.2393455994
 20
805.6653583365
 10
76.3664765549
 20
798.3245043027
 10
75.7415814591
 20
790.9332284646
 10
75.3660759223
 20
783.5082746053
 10
75.240813036
 20
776.0664628761
 10
75.3660759223
 20
768.6246511469
 10
75.7415814591
 20
761.1996972876
 10
76.3664765549
 20
753.8084214496
 10
77.2393455994
 20
746.4675674158
 10
78.3582141888
 20
739.1937667447
 10
79.7205454004
 20
732.0034908073
 10
81.3232546938
 20
724.9130340236
 10
83.1627099109
 20
717.9384561198
 10
85.2347461772
 20
711.095552327
 10
87.534669627
 20
704.3998347538
 10
90.0572648537
 20
697.8664653318
 10
92.7968247128
 20
691.5102409141
 10
95.7471391452
 20
685.345563473
 10
98.9015249801
 20
679.3863953965
 10
102.2528333855
 20
673.6462445872
 10
105.793481533
 20
668.1381048577
 10
109.5154414219
 20
662.8744559305
 10
113.4102827203
 20
657.8672261851
 10
117.4691839409
 20
653.1277554052
 10
121.6829501358
 20
648.6667798775
 10
126.0420352486
 20
644.4944100397
 10
130.5365642332
 20
640.6200932281
 10
135.1563558714
 20
637.0525913256
 10
139.8909448911
 20
633.8000254648
 10
144.7296057162
 20
630.869712116
 10
149.6613769126
 20
628.2683419006
 10
154.6750886631
 20
626.0017560738
 10
159.7593797636
 20
624.0751402395
 10
164.2979530883
 20
622.6601259725
  0
INSERT
  5
B2
330
1F
100
AcDbEntity
  8
FORMAT
 62
     7
100
AcDbBlockReference
  2
SW_CENTERMARKSYMBOL_0
 10
133.8437682283
 20
776.0664628761
 30
0.0
  0
LINE
  5
B3
330
1F
100
AcDbEntity
  8
0
  6
Continuous
 62
     7
370
    25
100
AcDbLine
 10
633.6842998775
 20
49.9432614277
 30
0.0
 11
633.6842998775
 21
-160.5338373948
 31
0.0
  0
LINE
  5
B4
330
1F
100
AcDbEntity
  8
0
  6
Continuous
 62
     7
370
    25
100
AcDbLine
 10
988.6842891486
 20
-160.5338373948
 30
0.0
 11
988.6842891486
 21
49.9432614277
 31
0.0
  0
LINE
  5
B5
330
1F
100
AcDbEntity
  8
0
  6
Continuous
 62
     7
370
    25
100
AcDbLine
 10
988.6842891486
 20
49.9432614277
 30
0.0
 11
988.6842891486
 21
175.4547139834
 31
0.0
  0
LINE
  5
B6
330
1F
100
AcDbEntity
  8
0
  6
Continuous
 62
     7
370
    25
100
AcDbLine
 10
633.6842998775
 20
175.4547139834
 30
0.0
 11
633.6842998775
 21
49.9432614277
 31
0.0
  0
LINE
  5
B7
330
1F
100
AcDbEntity
  8
0
  6
Continuous
 62
     7
370
    25
100
AcDbLine
 10
633.6842998775
 20
329.4661721419
 30
0.0
 11
633.6842998775
 21
175.4547139834
 31
0.0
  0
LINE
  5
B8
330
1F
100
AcDbEntity
  8
0
  6
Continuous
 62
     7
370
    25
100
AcDbLine
 10
988.6842891486
 20
175.4547139834
 30
0.0
 11
988.6842891486
 21
329.4661721419
 31
0.0
  0
LINE
  5
B9
330
1F
100
AcDbEntity
  8
0
  6
Continuous
 62
     7
370
    25
100
AcDbLine
 10
633.6842998775
 20
-160.5338373948
 30
0.0
 11
988.6842891486
 21
-160.5338373948
 31
0.0
  0
LWPOLYLINE
  5
BA
330
1F
100
AcDbEntity
  8
0
  6
Continuous
 62
     7
370
    25
100
AcDbPolyline
 90
       72
 70
   128
 43
0.0
 10
633.6842998775
 20
329.4661721419
 10
633.72834771
 20
332.2624346446
 10
634.0806707652
 20
337.8494164179
 10
634.7846165212
 20
343.4197386931
 10
635.8387842687
 20
348.9623746108
 10
637.2410878452
 20
354.4662675093
 10
638.9887407335
 20
359.9205693434
 10
641.078270963
 20
365.3143724631
 10
643.505536011
 20
370.6370672415
 10
646.2656930001
 20
375.8779248427
 10
649.3533030065
 20
381.0266932677
 10
652.7621969493
 20
386.0731205176
 10
656.4856395038
 20
391.0070738028
 10
660.5162098916
 20
395.8188971709
 10
664.8459210904
 20
400.498994274
 10
669.4661751302
 20
405.0380667876
 10
674.3677928956
 20
409.4270548056
 10
679.5410439285
 20
413.6573156546
 10
684.9756613286
 20
417.7204450797
 10
690.660864106
 20
421.6083368491
 10
696.5853497298
 20
425.313242359
 10
702.737361184
 20
428.8278898429
 10
709.1046869667
 20
432.1453055571
 10
715.6746759923
 20
435.2588137816
 10
722.4342971953
 20
438.1622752379
 10
729.3701171787
 20
440.8499082755
 10
736.4683747204
 20
443.3164676856
 10
743.7149733217
 20
445.556946678
 10
751.0955259116
 20
447.5669345091
 10
758.595377198
 20
449.3424376677
 10
766.1996409209
 20
450.8799990843
 10
773.8932184787
 20
452.1764597128
 10
781.6608343186
 20
453.2292565535
 10
789.4870657386
 20
454.0363630484
 10
797.3563736217
 20
454.5961698722
 10
805.253135963
 20
454.9075445365
 10
813.1616744125
 20
454.9698313902
 10
821.0662873374
 20
454.7829708289
 10
828.9512805553
 20
454.3472608756
 10
836.800998068
 20
453.6636552046
 10
844.5998579176
 20
452.7334651183
 10
852.3323722096
 20
451.5585383605
 10
859.9831908854
 20
450.1411995123
 10
867.537122211
 20
448.4842499922
 10
874.9791756185
 20
446.5910276602
 10
882.2945654305
 20
444.4652280043
 10
889.4687741907
 20
442.1111425589
 10
896.4875563892
 20
439.5334204863
 10
903.33697944
 20
436.737187786
 10
910.0034385832
 20
433.7279280852
 10
916.4737015875
 20
430.5116614531
 10
922.734923652
 20
427.0948251914
 10
928.7746697577
 20
423.4840950202
 10
934.5809519203
 20
419.6867427062
 10
940.1422366412
 20
415.7102784346
 10
945.4474970611
 20
411.5625700186
 10
950.4861906083
 20
407.2518428992
 10
955.2483037027
 20
402.7867397498
 10
959.7243890079
 20
398.1760224532
 10
963.9055803331
 20
393.4288701247
 10
967.783533028
 20
388.5547599028
 10
971.3505878957
 20
383.56334774
 10
974.5996519836
 20
378.4644684027
 10
977.5242581876
 20
373.2683738898
 10
980.1186248573
 20
367.9852565955
 10
982.3775663884
 20
362.6257261466
 10
984.2966422351
 20
357.2003325652
 10
985.8720078977
 20
351.719864292
 10
987.1005490335
 20
346.1952289771
 10
987.979821852
 20
340.6373342703
 10
988.5080829175
 20
335.0572964381
 10
988.6842891486
 20
329.4661721419
  0
LINE
  5
BB
330
1F
100
AcDbEntity
  8
0
  6
Continuous
 62
     1
370
    25
100
AcDbLine
 10
633.6842998775
 20
49.9432614277
 30
0.0
 11
988.6842891486
 21
49.9432614277
 31
0.0
  0
LWPOLYLINE
  5
BC
330
1F
100
AcDbEntity
  8
0
  6
Continuous
 62
     1
370
    25
100
AcDbPolyline
 90
       72
 70
   128
 43
0.0
 10
633.6842998775
 20
175.4547139834
 10
633.7834224017
 20
179.6486756037
 10
634.2237368139
 20
185.2325281333
 10
635.0153908046
 20
190.7969793509
 10
636.156819752
 20
196.3309427928
 10
637.6457586797
 20
201.8234810065
 10
639.4792273553
 20
207.2636565398
 10
641.6536047967
 20
212.6406809519
 10
644.1645696672
 20
217.9438850115
 10
647.0071300777
 20
223.1627186965
 10
650.1756533893
 20
228.2868406008
 10
653.663851312
 20
233.3060583304
 10
657.4647799047
 20
238.2104477118
 10
661.5709140809
 20
242.990203781
 10
665.9740880044
 20
247.6358792018
 10
670.6655695947
 20
252.1382650565
 10
675.6360307248
 20
256.4883908461
 10
680.8756068261
 20
260.6776436995
 10
686.3739117892
 20
264.6976789664
 10
692.1200081619
 20
268.5405394267
 10
698.1024891051
 20
272.1985956858
 10
704.3094932945
 20
275.6645461749
 10
710.7286825689
 20
278.931566162
 10
717.3473238857
 20
281.9931289385
 10
724.1522595199
 20
284.8431846331
 10
731.1299964698
 20
287.4760410021
 10
738.2666766556
 20
289.8865124415
 10
745.5481216224
 20
292.069770975
 10
752.9598809691
 20
294.0214952658
 10
760.4872435244
 20
295.7378408145
 10
768.1152559729
 20
297.2153505515
 10
775.8287824603
 20
298.4511336516
 10
783.6125008674
 20
299.4427165221
 10
791.4509624155
 20
300.1881024073
 10
799.3286019104
 20
300.6858905982
 10
807.2297801176
 20
300.935008211
 10
815.1388089085
 20
300.935008211
 10
823.0399871158
 20
300.6858905982
 10
830.9176266106
 20
300.1881024073
 10
838.7560881587
 20
299.4427165221
 10
846.5398065658
 20
298.4511336516
 10
854.2533330532
 20
297.2153505515
 10
861.8813455017
 20
295.7378408145
 10
869.408708057
 20
294.0214952658
 10
876.8204674037
 20
292.069770975
 10
884.1019123705
 20
289.8865124415
 10
891.2385925563
 20
287.4760410021
 10
898.2163295062
 20
284.8431846331
 10
905.0212651404
 20
281.9931289385
 10
911.6399064573
 20
278.931566162
 10
918.0590957316
 20
275.6645461749
 10
924.2660999211
 20
272.1985956858
 10
930.2485808643
 20
268.5405394267
 10
935.9946772369
 20
264.6976789664
 10
941.4929822
 20
260.6776436995
 10
946.7325583013
 20
256.4883908461
 10
951.7030194314
 20
252.1382650565
 10
956.3945010217
 20
247.6358792018
 10
960.7976749452
 20
242.990203781
 10
964.9038091214
 20
238.2104477118
 10
968.7047377141
 20
233.3060583304
 10
972.1929356368
 20
228.2868406008
 10
975.3614589484
 20
223.1627186965
 10
978.2040193589
 20
217.9438850115
 10
980.7149842294
 20
212.6406809519
 10
982.8893616708
 20
207.2636565398
 10
984.7228303464
 20
201.8234810065
 10
986.2117692741
 20
196.3309427928
 10
987.3531982215
 20
190.7969793509
 10
988.1448522123
 20
185.2325281333
 10
988.5851666244
 20
179.6486756037
 10
988.6842891486
 20
175.4547139834
  0
LINE
  5
BD
330
1F
100
AcDbEntity
  8
0
  6
Continuous
 62
     7
370
    25
100
AcDbLine
 10
339.8437684667
 20
-483.2451119328
 30
0.0
 11
185.8323140335
 21
-483.2451119328
 31
0.0
  0
LINE
  5
BE
330
1F
100
AcDbEntity
  8
0
  6
Continuous
 62
     7
370
    25
100
AcDbLine
 10
185.8323140335
 20
-838.245101204
 30
0.0
 11
339.8437684667
 21
-838.245101204
 31
0.0
  0
LINE
  5
BF
330
1F
100
AcDbEntity
  8
0
  6
Continuous
 62
     7
370
    25
100
AcDbLine
 10
133.8437682283
 20
-838.245101204
 30
0.0
 11
185.8323140335
 21
-838.245101204
 31
0.0
  0
LINE
  5
C0
330
1F
100
AcDbEntity
  8
0
  6
Continuous
 62
     7
370
    25
100
AcDbLine
 10
185.8323140335
 20
-483.2451119328
 30
0.0
 11
133.8437682283
 21
-483.2451119328
 31
0.0
  0
LWPOLYLINE
  5
C1
330
1F
100
AcDbEntity
  8
0
  6
Continuous
 62
     7
370
    25
100
AcDbPolyline
 90
      142
 70
   128
 43
0.0
 10
339.8437684667
 20
-838.245101204
 10
345.4349076641
 20
-838.0688949729
 10
351.0149454963
 20
-837.5406339074
 10
356.5728104007
 20
-836.6613610888
 10
362.0974606168
 20
-835.432819953
 10
367.5779139888
 20
-833.8574542905
 10
373.0033224714
 20
-831.9383784438
 10
378.3628827226
 20
-829.6794369126
 10
383.6459702146
 20
-827.0850702429
 10
388.8420945299
 20
-824.1604640389
 10
393.9409440649
 20
-820.911399951
 10
398.93238603
 20
-817.3443450833
 10
403.8064962518
 20
-813.4663923884
 10
408.553618778
 20
-809.2852010632
 10
413.1643360746
 20
-804.809115758
 10
417.6294690263
 20
-800.0470026637
 10
421.9401961458
 20
-795.0083091164
 10
426.0879045618
 20
-789.7030486966
 10
430.0643688333
 20
-784.1417639757
 10
433.8617211473
 20
-778.335481813
 10
437.4724215162
 20
-772.2957357073
 10
440.8892875803
 20
-766.0345136429
 10
444.10552441
 20
-759.5642506385
 10
447.1147543085
 20
-752.8977914954
 10
449.9110168112
 20
-746.0483684445
 10
452.4887686861
 20
-739.0295862461
 10
454.8428541315
 20
-731.8553774858
 10
456.9686239851
 20
-724.5399876738
 10
458.8618463171
 20
-717.0979342664
 10
460.5187958372
 20
-709.5440029407
 10
461.9361346853
 20
-701.893184265
 10
463.1110614431
 20
-694.160669973
 10
464.0412515295
 20
-686.3618101234
 10
464.7248870027
 20
-678.5120926107
 10
465.1605671537
 20
-670.6270993928
 10
465.3474277151
 20
-662.7224864679
 10
465.2851408613
 20
-654.8139480183
 10
464.973766197
 20
-646.9171856771
 10
464.4139891756
 20
-639.047877794
 10
463.6068826807
 20
-631.2216463739
 10
462.5540560377
 20
-623.4540305341
 10
461.2575954092
 20
-615.7604529763
 10
459.7200637949
 20
-608.1561892534
 10
457.9445606363
 20
-600.656337967
 10
455.9345430029
 20
-593.2757853771
 10
453.6940640104
 20
-586.0291867757
 10
451.2275344026
 20
-578.9309292341
 10
448.5398715627
 20
-571.9951092506
 10
445.6364101064
 20
-565.2354880477
 10
442.522901882
 20
-558.6654990221
 10
439.20551597
 20
-552.2981732393
 10
435.6908684862
 20
-546.1461617852
 10
431.9859331739
 20
-540.2216761614
 10
428.0980414045
 20
-534.536473384
 10
424.0349417818
 20
-529.1018559838
 10
419.8046809328
 20
-523.928604951
 10
415.4156631124
 20
-519.0269871855
 10
410.8766204012
 20
-514.4067331458
 10
406.196523298
 20
-510.077021947
 10
401.38469993
 20
-506.0464515591
 10
396.4507168424
 20
-502.3230090047
 10
391.4043193948
 20
-498.9141150618
 10
386.2555509699
 20
-495.8265050555
 10
381.0146486652
 20
-493.0663480664
 10
375.6919985903
 20
-490.6390830184
 10
370.2981805694
 20
-488.5495527888
 10
364.8438936365
 20
-486.8018999005
 10
359.3399709356
 20
-485.399596324
 10
353.7973350179
 20
-484.3454285765
 10
348.2270127428
 20
-483.6414828206
 10
342.6400309694
 20
-483.2891597653
 10
337.0475059641
 20
-483.2891597653
 10
331.4605241907
 20
-483.6414828206
 10
325.8902019155
 20
-484.3454285765
 10
320.3475659979
 20
-485.399596324
 10
314.843643297
 20
-486.8018999005
 10
309.389356364
 20
-488.5495527888
 10
303.9955383432
 20
-490.6390830184
 10
298.6728882683
 20
-493.0663480664
 10
293.4319859636
 20
-495.8265050555
 10
288.2832175386
 20
-498.9141150618
 10
283.2368349922
 20
-502.3230090047
 10
278.3028221023
 20
-506.0464515591
 10
273.4910136354
 20
-510.077021947
 10
268.8109314335
 20
-514.4067331458
 10
264.271873821
 20
-519.0269871855
 10
259.8828560007
 20
-523.928604951
 10
255.6526026023
 20
-529.1018559838
 10
251.589495529
 20
-534.536473384
 10
247.7016112101
 20
-540.2216761614
 10
243.9966684473
 20
-546.1461617852
 10
240.4820209635
 20
-552.2981732393
 10
237.1646499527
 20
-558.6654990221
 10
234.0511342776
 20
-565.2354880477
 10
231.1476579201
 20
-571.9951092506
 10
228.4599950803
 20
-578.9309292341
 10
225.9934654725
 20
-586.0291867757
 10
223.75298648
 20
-593.2757853771
 10
221.7429837477
 20
-600.656337967
 10
219.967465688
 20
-608.1561892534
 10
218.4299489749
 20
-615.7604529763
 10
217.1334883464
 20
-623.4540305341
 10
216.0806542528
 20
-631.2216463739
 10
215.2735477579
 20
-639.047877794
 10
214.7137558353
 20
-646.9171856771
 10
214.4024035228
 20
-654.8139480183
 10
214.3401017678
 20
-662.7224864679
 10
214.5269772303
 20
-670.6270993928
 10
214.9626573813
 20
-678.5120926107
 10
215.6462779534
 20
-686.3618101234
 10
216.5764754904
 20
-694.160669973
 10
217.7514171493
 20
-701.893184265
 10
219.1687559974
 20
-709.5440029407
 10
220.8256831658
 20
-717.0979342664
 10
222.7189129484
 20
-724.5399876738
 10
224.844682802
 20
-731.8553774858
 10
227.198775698
 20
-739.0295862461
 10
229.7765052211
 20
-746.0483684445
 10
232.5727751744
 20
-752.8977914954
 10
235.5820125234
 20
-759.5642506385
 10
238.7982568038
 20
-766.0345136429
 10
242.2151154173
 20
-772.2957357073
 10
245.8258083356
 20
-778.335481813
 10
249.6231606496
 20
-784.1417639757
 10
253.5996398223
 20
-789.7030486966
 10
257.7473556888
 20
-795.0083091164
 10
262.058053006
 20
-800.0470026637
 10
266.5232008589
 20
-804.809115758
 10
271.1339181555
 20
-809.2852010632
 10
275.8810406816
 20
-813.4663923884
 10
280.7551658046
 20
-817.3443450833
 10
285.7466077697
 20
-820.911399951
 10
290.8454424036
 20
-824.1604640389
 10
296.0415667188
 20
-827.0850702429
 10
301.3246542108
 20
-829.6794369126
 10
306.6842144621
 20
-831.9383784438
 10
312.1096229446
 20
-833.8574542905
 10
317.5900763166
 20
-835.432819953
 10
323.1147265327
 20
-836.6613610888
 10
328.6725914371
 20
-837.5406339074
 10
334.2526292694
 20
-838.0688949729
 10
339.8437684667
 20
-838.245101204
  0
LWPOLYLINE
  5
C2
330
1F
100
AcDbEntity
  8
0
  6
Continuous
 62
     7
370
    25
100
AcDbPolyline
 90
      133
 70
   128
 43
0.0
 10
339.8437684667
 20
-817.145101657
 10
334.5816171062
 20
-816.9679566527
 10
329.3313717735
 20
-816.4369090701
 10
324.1049533975
 20
-815.5531808043
 10
318.9141935003
 20
-814.3187537099
 10
313.7708341968
 20
-812.736429205
 10
308.6865430963
 20
-810.8098133708
 10
303.6728387964
 20
-808.5432275439
 10
298.7410610807
 20
-805.9418573285
 10
293.9024007213
 20
-803.0115439797
 10
289.1678100717
 20
-799.758978119
 10
284.548017968
 20
-796.1914762164
 10
280.0534850252
 20
-792.3171594048
 10
275.6944036377
 20
-788.1447895671
 10
271.4806383741
 20
-783.6838140393
 10
267.4217408788
 20
-778.9443432594
 10
263.5268902672
 20
-773.937113514
 10
259.8049378288
 20
-768.6734645868
 10
256.2642878187
 20
-763.1653248573
 10
252.9129794133
 20
-757.425174048
 10
249.7585898531
 20
-751.4660059715
 10
246.808279146
 20
-745.3013285304
 10
244.0687155616
 20
-738.9451041127
 10
241.5461203349
 20
-732.4117346907
 10
239.2462006104
 20
-725.7160171176
 10
237.1741643441
 20
-718.8731133247
 10
235.3347128523
 20
-711.898535421
 10
233.7320035589
 20
-704.8080786372
 10
232.3696648967
 20
-697.6178026999
 10
231.2508037579
 20
-690.3440020288
 10
230.3779309881
 20
-683.0031479949
 10
229.7530358923
 20
-675.6118721569
 10
229.3775266302
 20
-668.1869182976
 10
229.2522674692
 20
-660.7451065684
 10
229.3775266302
 20
-653.3032948392
 10
229.7530358923
 20
-645.8783409799
 10
230.3779309881
 20
-638.4870651419
 10
231.2508037579
 20
-631.146211108
 10
232.3696648967
 20
-623.8724104369
 10
233.7320035589
 20
-616.6821344996
 10
235.3347128523
 20
-609.5916777158
 10
237.1741643441
 20
-602.6170998121
 10
239.2462006104
 20
-595.7741960192
 10
241.5461203349
 20
-589.0784784461
 10
244.0687155616
 20
-582.5451090241
 10
246.808279146
 20
-576.1888846064
 10
249.7585898531
 20
-570.0242071653
 10
252.9129794133
 20
-564.0650390888
 10
256.2642878187
 20
-558.3248882795
 10
259.8049378288
 20
-552.81674855
 10
263.5268902672
 20
-547.5530996228
 10
267.4217408788
 20
-542.5458698774
 10
271.4806383741
 20
-537.8063990975
 10
275.6944036377
 20
-533.3454235697
 10
280.0534850252
 20
-529.173053732
 10
284.548017968
 20
-525.2987369204
 10
289.1678100717
 20
-521.7312350178
 10
293.9024007213
 20
-518.4786691571
 10
298.7410610807
 20
-515.5483558083
 10
303.6728387964
 20
-512.9469855929
 10
308.6865430963
 20
-510.680399766
 10
313.7708341968
 20
-508.7537839318
 10
318.9141935003
 20
-507.1714594269
 10
324.1049533975
 20
-505.9370323325
 10
329.3313717735
 20
-505.0533040667
 10
334.5816171062
 20
-504.5222564841
 10
339.8437684667
 20
-504.3451114798
 10
345.1059198272
 20
-504.5222564841
 10
350.35616516
 20
-505.0533040667
 10
355.5825835359
 20
-505.9370323325
 10
360.7733434332
 20
-507.1714594269
 10
365.9167027366
 20
-508.7537839318
 10
371.0009938371
 20
-510.680399766
 10
376.0146981371
 20
-512.9469855929
 10
380.9464758527
 20
-515.5483558083
 10
385.7851511133
 20
-518.4786691571
 10
390.5197268617
 20
-521.7312350178
 10
395.1395040643
 20
-525.2987369204
 10
399.6340519083
 20
-529.173053732
 10
403.9931183946
 20
-533.3454235697
 10
408.2068985594
 20
-537.8063990975
 10
412.2657960546
 20
-542.5458698774
 10
416.1606317651
 20
-547.5530996228
 10
419.8826140058
 20
-552.81674855
 10
423.4232491148
 20
-558.3248882795
 10
426.7745500696
 20
-564.0650390888
 10
429.9289470804
 20
-570.0242071653
 10
432.8792577875
 20
-576.1888846064
 10
435.6188064707
 20
-582.5451090241
 10
438.1414240492
 20
-589.0784784461
 10
440.4413288725
 20
-595.7741960192
 10
442.5133651388
 20
-602.6170998121
 10
444.3528240812
 20
-609.5916777158
 10
445.9555333746
 20
-616.6821344996
 10
447.3178571356
 20
-623.8724104369
 10
448.436725725
 20
-631.146211108
 10
449.3096059454
 20
-638.4870651419
 10
449.9345010412
 20
-645.8783409799
 10
450.3100103033
 20
-653.3032948392
 10
450.4352694643
 20
-660.7451065684
 10
450.3100103033
 20
-668.1869182976
 10
449.9345010412
 20
-675.6118721569
 10
449.3096059454
 20
-683.0031479949
 10
448.436725725
 20
-690.3440020288
 10
447.3178571356
 20
-697.6178026999
 10
445.9555333746
 20
-704.8080786372
 10
444.3528240812
 20
-711.898535421
 10
442.5133651388
 20
-718.8731133247
 10
440.4413288725
 20
-725.7160171176
 10
438.1414240492
 20
-732.4117346907
 10
435.6188064707
 20
-738.9451041127
 10
432.8792577875
 20
-745.3013285304
 10
429.9289470804
 20
-751.4660059715
 10
426.7745500696
 20
-757.425174048
 10
423.4232491148
 20
-763.1653248573
 10
419.8826140058
 20
-768.6734645868
 10
416.1606317651
 20
-773.937113514
 10
412.2657960546
 20
-778.9443432594
 10
408.2068985594
 20
-783.6838140393
 10
403.9931183946
 20
-788.1447895671
 10
399.6340519083
 20
-792.3171594048
 10
395.1395040643
 20
-796.1914762164
 10
390.5197268617
 20
-799.758978119
 10
385.7851511133
 20
-803.0115439797
 10
380.9464758527
 20
-805.9418573285
 10
376.0146981371
 20
-808.5432275439
 10
371.0009938371
 20
-810.8098133708
 10
365.9167027366
 20
-812.736429205
 10
360.7733434332
 20
-814.3187537099
 10
355.5825835359
 20
-815.5531808043
 10
350.35616516
 20
-816.4369090701
 10
345.1059198272
 20
-816.9679566527
 10
339.8437684667
 20
-817.145101657
  0
ARC
  5
C3
330
1F
100
AcDbEntity
  8
0
  6
Continuous
 62
     7
370
    25
100
AcDbCircle
 10
133.8437682283
 20
-660.7451065684
 30
0.0
 40
177.5
100
AcDbArc
 50
90.0
 51
270.0
  0
ARC
  5
C4
330
1F
100
AcDbEntity
  8
0
  6
Continuous
 62
     7
370
    25
100
AcDbCircle
 10
133.8437682283
 20
-660.7451065684
 30
0.0
 40
156.4
100
AcDbArc
 50
320.4941956607
 51
39.5058043393
  0
LWPOLYLINE
  5
C5
330
1F
100
AcDbEntity
  8
0
  6
Continuous
 62
     1
370
    25
100
AcDbPolyline
 90
       72
 70
   128
 43
0.0
 10
185.8323140335
 20
-483.2451119328
 10
181.6383524132
 20
-483.3442344571
 10
176.0544961584
 20
-483.7845488692
 10
170.4900561166
 20
-484.5762028599
 10
164.9560759109
 20
-485.7176318074
 10
159.4635432852
 20
-487.206570735
 10
154.0233621639
 20
-489.0400394107
 10
148.6463358891
 20
-491.2144168521
 10
143.3431383488
 20
-493.7253817225
 10
138.1242995416
 20
-496.567942133
 10
133.000180664
 20
-499.7364654446
 10
127.9809547854
 20
-503.2246633673
 10
123.0765877557
 20
-507.02559196
 10
118.296815854
 20
-511.1317261363
 10
113.6511301887
 20
-515.5349000598
 10
109.1487536472
 20
-520.22638165
 10
104.7986241323
 20
-525.1968427802
 10
100.6093805921
 20
-530.4364188815
 10
96.5893378747
 20
-535.9347238446
 10
92.7464811397
 20
-541.6808202172
 10
89.0884360564
 20
-547.6633011604
 10
85.6224669409
 20
-553.8703053499
 10
82.3554544044
 20
-560.2894946242
 10
79.2938879025
 20
-566.9081359411
 10
76.4438433838
 20
-573.7130715752
 10
73.8109795642
 20
-580.6908085251
 10
71.400523026
 20
-587.8274887109
 10
69.2172607672
 20
-595.1089336777
 10
67.2655215752
 20
-602.5206930245
 10
65.5491909278
 20
-610.0480555797
 10
64.0716737402
 20
-617.6760680283
 10
62.8358980906
 20
-625.3895945156
 10
61.8443152201
 20
-633.1733129228
 10
61.0989069832
 20
-641.0117744709
 10
60.6011411441
 20
-648.8894139657
 10
60.3520160806
 20
-656.790592173
 10
60.3520160806
 20
-664.6996209638
 10
60.6011411441
 20
-672.6007991711
 10
61.0989069832
 20
-680.4784386659
 10
61.8443152201
 20
-688.316900214
 10
62.8358980906
 20
-696.1006186212
 10
64.0716737402
 20
-703.8141451085
 10
65.5491909278
 20
-711.4421575571
 10
67.2655215752
 20
-718.9695201123
 10
69.2172607672
 20
-726.3812794591
 10
71.400523026
 20
-733.6627244259
 10
73.8109795642
 20
-740.7994046117
 10
76.4438433838
 20
-747.7771415616
 10
79.2938879025
 20
-754.5820771957
 10
82.3554544044
 20
-761.2007185126
 10
85.6224669409
 20
-767.6199077869
 10
89.0884360564
 20
-773.8269119764
 10
92.7464811397
 20
-779.8093929196
 10
96.5893378747
 20
-785.5554892922
 10
100.6093805921
 20
-791.0537942553
 10
104.7986241323
 20
-796.2933703566
 10
109.1487536472
 20
-801.2638314868
 10
113.6511301887
 20
-805.955313077
 10
118.296815854
 20
-810.3584870005
 10
123.0765877557
 20
-814.4646211768
 10
127.9809547854
 20
-818.2655497695
 10
133.000180664
 20
-821.7537476922
 10
138.1242995416
 20
-824.9222710038
 10
143.3431383488
 20
-827.7648314143
 10
148.6463358891
 20
-830.2757962847
 10
154.0233621639
 20
-832.4501737261
 10
159.4635432852
 20
-834.2836424018
 10
164.9560759109
 20
-835.7725813294
 10
170.4900561166
 20
-836.9140102769
 10
176.0544961584
 20
-837.7056642676
 10
181.6383524132
 20
-838.1459786797
 10
185.8323140335
 20
-838.245101204
  0
LWPOLYLINE
  5
C6
330
1F
100
AcDbEntity
  8
0
  6
Continuous
 62
     1
370
    25
100
AcDbPolyline
 90
       35
 70
   128
 43
0.0
 10
262.8380393875
 20
-548.4900548363
 10
265.8711409462
 20
-552.81674855
 10
269.4117909563
 20
-558.3248882795
 10
272.7631068123
 20
-564.0650390888
 10
275.9174889219
 20
-570.0242071653
 10
278.867799629
 20
-576.1888846064
 10
281.6073632133
 20
-582.5451090241
 10
284.1299658907
 20
-589.0784784461
 10
286.4298856151
 20
-595.7741960192
 10
288.5019218815
 20
-602.6170998121
 10
290.3413659227
 20
-609.5916777158
 10
291.9440752161
 20
-616.6821344996
 10
293.3064138782
 20
-623.8724104369
 10
294.4252824676
 20
-631.146211108
 10
295.2981477869
 20
-638.4870651419
 10
295.9230428827
 20
-645.8783409799
 10
296.2985521448
 20
-653.3032948392
 10
296.4238113058
 20
-660.7451065684
 10
296.2985521448
 20
-668.1869182976
 10
295.9230428827
 20
-675.6118721569
 10
295.2981477869
 20
-683.0031479949
 10
294.4252824676
 20
-690.3440020288
 10
293.3064138782
 20
-697.6178026999
 10
291.9440752161
 20
-704.8080786372
 10
290.3413659227
 20
-711.898535421
 10
288.5019218815
 20
-718.8731133247
 10
286.4298856151
 20
-725.7160171176
 10
284.1299658907
 20
-732.4117346907
 10
281.6073632133
 20
-738.9451041127
 10
278.867799629
 20
-745.3013285304
 10
275.9174889219
 20
-751.4660059715
 10
272.7631068123
 20
-757.425174048
 10
269.4117909563
 20
-763.1653248573
 10
265.8711409462
 20
-768.6734645868
 10
262.8380393875
 20
-773.0001583005
  0
INSERT
  5
D2
330
1F
100
AcDbEntity
  8
FORMAT
 62
     7
100
AcDbBlockReference
  2
SW_CENTERMARKSYMBOL_1
 10
133.8437682283
 20
-660.7451065684
 30
0.0
  0
LINE
  5
D3
330
1F
100
AcDbEntity
  8
0
  6
Continuous
 62
     7
370
    25
100
AcDbLine
 10
600.6604078785
 20
-722.6016415878
 30
0.0
 11
600.6604078785
 21
-894.4647827438
 31
0.0
  0
LINE
  5
D4
330
1F
100
AcDbEntity
  8
0
  6
Continuous
 62
     7
370
    25
100
AcDbLine
 10
955.6604047532
 20
-894.4647827438
 30
0.0
 11
955.6604047532
 21
-722.6016415878
 31
0.0
  0
LINE
  5
D5
330
1F
100
AcDbEntity
  8
0
  6
Continuous
 62
     7
370
    25
100
AcDbLine
 10
770.1048896967
 20
-321.5197508033
 30
0.0
 11
661.2023472036
 21
-510.1444914839
 31
0.0
  0
LINE
  5
D6
330
1F
100
AcDbEntity
  8
0
  6
Continuous
 62
     7
370
    25
100
AcDbLine
 10
968.6413759451
 20
-687.6444964869
 30
0.0
 11
1077.5439065843
 21
-499.0197626494
 31
0.0
  0
SPLINE
  5
D7
330
1F
100
AcDbEntity
  8
0
  6
Continuous
 62
     7
370
    25
100
AcDbSpline
210
0.0
220
0.0
230
1.0
 70
     8
 71
     3
 72
    29
 73
    25
 74
     0
 42
0.000000001
 43
0.00000001
 40
0.0
 40
0.0
 40
0.0
 40
0.0
 40
0.0271998689341744
 40
0.0739514785295314
 40
0.1207344289697524
 40
0.1675649006854194
 40
0.2144602199447829
 40
0.2614371067249524
 40
0.3085113157584241
 40
0.3556974255039904
 40
0.4030083795408712
 40
0.4504547269195587
 40
0.4980442220545562
 40
0.545781113542039
 40
0.5936654841613844
 40
0.6416923674058456
 40
0.689850969224475
 40
0.738124352308864
 40
0.7864881655439108
 40
0.8349114557079228
 40
0.8833429487318567
 40
0.9317355697611666
 40
0.9800391018265702
 40
1.0
 40
1.0
 40
1.0
 40
1.0
 10
661.2023472036383
 20
-510.1444914838642
 30
0.0
 10
660.1734033948046
 20
-511.9425882006668
 30
0.0
 10
657.3758930034419
 20
-516.8312849465391
 30
0.0
 10
652.9769763083771
 20
-524.9059970800652
 30
0.0
 10
648.0632519231926
 20
-534.3920883493317
 30
0.0
 10
643.3637866680712
 20
-543.9866935634956
 30
0.0
 10
638.8784800289307
 20
-553.6833177664811
 30
0.0
 10
634.6122036400914
 20
-563.4783645092307
 30
0.0
 10
630.5689554454317
 20
-573.3674894874448
 30
0.0
 10
626.7534476829377
 20
-583.34642707572
 30
0.0
 10
623.170687618117
 20
-593.4106462840545
 30
0.0
 10
619.8261445336861
 20
-603.5553226801618
 30
0.0
 10
616.7256471438227
 20
-613.7751231822366
 30
0.0
 10
613.8754967770617
 20
-624.0641620970422
 30
0.0
 10
611.2823542576475
 20
-634.4157580270406
 30
0.0
 10
608.9531213636943
 20
-644.8222499230556
 30
0.0
 10
606.8950672129349
 20
-655.2749275350684
 30
0.0
 10
605.1154582316565
 20
-665.7637041174229
 30
0.0
 10
603.6215233488387
 20
-676.2772044567342
 30
0.0
 10
602.420655042573
 20
-686.8014964630762
 30
0.0
 10
601.5182166839577
 20
-697.3212828382669
 30
0.0
 10
600.9244957220449
 20
-707.8192017828629
 30
0.0
 10
600.6847755888676
 20
-716.243584635686
 30
0.0
 10
600.6659210502086
 20
-721.1631371392166
 30
0.0
 10
600.6604078784885
 20
-722.6016415878473
 30
0.0
  0
SPLINE
  5
D8
330
1F
100
AcDbEntity
  8
0
  6
Continuous
 62
     7
370
    25
100
AcDbSpline
210
0.0
220
0.0
230
1.0
 70
     8
 71
     3
 72
    26
 73
    22
 74
     0
 42
0.000000001
 43
0.00000001
 40
0.0
 40
0.0
 40
0.0
 40
0.0
 40
0.017565697956475
 40
0.0783125108282026
 40
0.1374895033470108
 40
0.1953890015141756
 40
0.2522853525752369
 40
0.3084322225049032
 40
0.3640584405970505
 40
0.4193664826336411
 40
0.4745311757044423
 40
0.5296964738330687
 40
0.5849720792827359
 40
0.6404164018800911
 40
0.6960930798992286
 40
0.7520377210742278
 40
0.8082611136000799
 40
0.8647502067280193
 40
0.921474484258813
 40
0.9783879736314539
 40
0.9999999999999999
 40
0.9999999999999999
 40
0.9999999999999999
 40
0.9999999999999999
 10
955.6591930313069
 20
-722.7443003472323
 30
0.0
 10
955.6589899904541
 20
-722.7535345755178
 30
0.0
 10
955.6580847808218
 20
-722.7947031988427
 30
0.0
 10
955.6678237320804
 20
-722.5684871919046
 30
0.0
 10
955.7121035976138
 20
-722.0582993023868
 30
0.0
 10
955.8067973001391
 20
-721.2432517219925
 30
0.0
 10
955.9661834756539
 20
-720.1623172943359
 30
0.0
 10
956.2041204797454
 20
-718.8204922472385
 30
0.0
 10
956.5328693748902
 20
-717.2326640560703
 30
0.0
 10
956.9634799959731
 20
-715.4124761725388
 30
0.0
 10
957.5054174695583
 20
-713.3755491873932
 30
0.0
 10
958.16658988033
 20
-711.1391425296787
 30
0.0
 10
958.9528651674224
 20
-708.722744387508
 30
0.0
 10
959.8680467791472
 20
-706.1478161819236
 30
0.0
 10
960.9137068153109
 20
-703.4376355977009
 30
0.0
 10
962.0890838369917
 20
-700.6165947651995
 30
0.0
 10
963.3914026704981
 20
-697.7110386344872
 30
0.0
 10
964.813216075864
 20
-694.747335729206
 30
0.0
 10
966.3522230750243
 20
-691.7576145020562
 30
0.0
 10
967.637196894406
 20
-689.3795405051194
 30
0.0
 10
968.4316738389947
 20
-688.0234555035045
 30
0.0
 10
968.6503321504185
 20
-687.6502297496045
 30
0.0
  0
LWPOLYLINE
  5
D9
330
1F
100
AcDbEntity
  8
0
  6
Continuous
 62
     7
370
    25
100
AcDbPolyline
 90
      142
 70
   128
 43
0.0
 10
652.6489564484
 20
-822.0085650093
 10
658.3646934067
 20
-818.8527964942
 10
664.3182689824
 20
-815.8471470904
 10
670.497868887
 20
-812.9975854615
 10
676.8912257535
 20
-810.3097700524
 10
683.4856402095
 20
-807.7890369246
 10
690.2680322441
 20
-805.4403944329
 10
697.2249095973
 20
-803.2684928126
 10
704.3424928839
 20
-801.2776614357
 10
711.6066233969
 20
-799.4718403804
 10
719.0029000851
 20
-797.8546230103
 10
726.5166242351
 20
-796.4292149158
 10
734.1328758623
 20
-795.1984384766
 10
741.8365558585
 20
-794.164757192
 10
749.6123385758
 20
-793.3302057298
 10
757.4447982675
 20
-792.696450754
 10
765.3183985518
 20
-792.264748345
 10
773.2174976795
 20
-792.0359531241
 10
781.1264012177
 20
-792.0105182537
 10
789.0294200023
 20
-792.1884984781
 10
796.9108543321
 20
-792.569541
 10
804.7550624579
 20
-793.1528885213
 10
812.5464763876
 20
-793.9373762022
 10
820.269617691
 20
-794.9214529507
 10
827.9091554521
 20
-796.1031662152
 10
835.4499168053
 20
-797.4801680681
 10
842.8769396195
 20
-799.0497212879
 10
850.1754724977
 20
-800.8087115248
 10
857.3310248264
 20
-802.7536518627
 10
864.3293904836
 20
-804.8806721745
 10
871.156671546
 20
-807.1855571392
 10
877.7993230702
 20
-809.6637234314
 10
884.2441517754
 20
-812.3102554575
 10
890.4783621419
 20
-815.1198954713
 10
896.4895768256
 20
-818.0870675244
 10
902.2658508171
 20
-821.2058856402
 10
907.7957284052
 20
-824.4701502021
 10
913.0682332995
 20
-827.8733787473
 10
918.0728903616
 20
-831.4088185123
 10
922.7997595209
 20
-835.0694538464
 10
927.2394545424
 20
-838.8480170462
 10
931.3831772715
 20
-842.7369959595
 10
935.2226866822
 20
-846.7286769441
 10
938.7503620975
 20
-850.8151327023
 10
941.9592071405
 20
-854.9882488931
 10
944.8428418321
 20
-859.2397439008
 10
947.3955394691
 20
-863.5611779591
 10
949.6122424298
 20
-867.9439622752
 10
951.4885411002
 20
-872.3794076915
 10
953.0207107525
 20
-876.8586973135
 10
954.2057115452
 20
-881.3729473367
 10
955.0411937916
 20
-885.9131857574
 10
955.5254979595
 20
-890.470401034
 10
955.6576546713
 20
-895.035554253
 10
955.4374057777
 20
-899.599566963
 10
954.8651938206
 20
-904.1533820023
 10
953.942146228
 20
-908.6879665399
 10
952.6701069248
 20
-913.1943120757
 10
951.0515889166
 20
-917.6634739782
 10
949.0898164375
 20
-922.0865714842
 10
946.7886828025
 20
-926.4548363609
 10
944.1527398713
 20
-930.7595824921
 10
941.1872507315
 20
-934.9922727881
 10
937.8980711611
 20
-939.1444902928
 10
934.291757629
 20
-943.2080096556
 10
930.3754592945
 20
-947.1747499903
 10
926.1569496169
 20
-951.0368417851
 10
921.6446079165
 20
-954.7866132165
 10
916.8473877646
 20
-958.4166205627
 10
911.7748202757
 20
-961.9196584682
 10
906.4369736075
 20
-965.288771159
 10
900.8444457169
 20
-968.5172687898
 10
895.0083390056
 20
-971.5987420803
 10
888.9402418814
 20
-974.5270729604
 10
882.652203404
 20
-977.2964492063
 10
876.1567049672
 20
-979.9013686226
 10
869.4666408727
 20
-982.3366624228
 10
862.5953005485
 20
-984.5974933282
 10
855.556315866
 20
-986.6793738162
 10
848.3636848473
 20
-988.5781767651
 10
841.0316557613
 20
-990.2901172058
 10
833.5748087835
 20
-991.8118146697
 10
826.0079321892
 20
-993.1402308411
 10
818.3460724035
 20
-994.2727379872
 10
810.6044180968
 20
-995.2070885451
 10
802.7983528689
 20
-995.9414212041
 10
794.9433709549
 20
-996.474285237
 10
787.0550772256
 20
-996.8046161685
 10
779.1491186984
 20
-996.9317631484
 10
771.2411845376
 20
-996.8554707026
 10
763.3470007862
 20
-996.5758878576
 10
755.4822249983
 20
-996.0935742231
 10
747.662467313
 20
-995.4094878266
 10
739.9032693806
 20
-994.5249851135
 10
732.2200200693
 20
-993.4418209469
 10
724.6279923432
 20
-992.1621455663
 10
717.1422378956
 20
-990.6885045878
 10
709.777634564
 20
-989.0238177142
 10
702.5488020366
 20
-987.1713909009
 10
695.4700860469
 20
-985.1349072314
 10
688.5555425688
 20
-982.9184056282
 10
681.8189035725
 20
-980.5262854144
 10
675.273530926
 20
-977.9633040331
 10
668.9324374687
 20
-975.2345405508
 10
662.8082125962
 20
-972.3454135256
 10
656.9130090886
 20
-969.3016612383
 10
651.2585243428
 20
-966.1093308573
 10
645.8559875305
 20
-962.7747588604
 10
640.7161378663
 20
-959.3045584888
 10
635.8491712655
 20
-955.7056254496
 10
631.2647466004
 20
-951.9851050316
 10
626.9719715416
 20
-948.150383931
 10
622.9793610695
 20
-944.2090784668
 10
619.2948545967
 20
-940.1690079682
 10
615.9257540648
 20
-936.0381955356
 10
612.8787634567
 20
-931.8248421888
 10
610.1599229429
 20
-927.5373131808
 10
607.7746273197
 20
-923.1841243118
 10
605.7276181078
 20
-918.7739130363
 10
604.022962478
 20
-914.3154384631
 10
602.6640427149
 20
-909.8175509417
 10
601.6535456801
 20
-905.2891859797
 10
600.9934891539
 20
-900.7393307875
 10
600.6851849571
 20
-896.1770151548
 10
600.7292442188
 20
-891.6113023261
 10
601.1255721088
 20
-887.0512494631
 10
601.8733836419
 20
-882.5059167691
 10
602.9711984102
 20
-877.9843340337
 10
604.4168405824
 20
-873.4954702191
 10
606.2074230996
 20
-869.0482304195
 10
608.3394214316
 20
-864.6514619429
 10
610.8085682098
 20
-860.3138813192
 10
613.6099743999
 20
-856.0441016719
 10
616.7380871546
 20
-851.8506083878
 10
620.1866819112
 20
-847.7417150167
 10
623.9489335144
 20
-843.7255952062
 10
628.0173424594
 20
-839.8102036261
 10
632.3838534297
 20
-836.0033291922
 10
637.03979076
 20
-832.3125228342
 10
641.9759111196
 20
-828.7451157437
 10
647.182412732
 20
-825.3081897208
 10
652.6489564484
 20
-822.0085650093
  0
LWPOLYLINE
  5
DA
330
1F
100
AcDbEntity
  8
0
  6
Continuous
 62
     7
370
    25
100
AcDbPolyline
 90
      133
 70
   128
 43
0.0
 10
667.5689092112
 20
-830.6216704041
 10
662.4320141069
 20
-833.7317594446
 10
657.5572862298
 20
-836.979431502
 10
652.9557552126
 20
-840.3573217398
 10
648.6378593149
 20
-843.857786277
 10
644.6133779228
 20
-847.4728924935
 10
640.89140817
 20
-851.1944446919
 10
637.4804163049
 20
-855.0140274369
 10
634.3880914929
 20
-858.9229682984
 10
631.6214722579
 20
-862.9124351749
 10
629.1867963334
 20
-866.973364822
 10
627.0896112983
 20
-871.0965814649
 10
625.3346375998
 20
-875.2727298888
 10
623.9258633832
 20
-879.4923545142
 10
622.8664812725
 20
-883.7458993966
 10
622.1588936379
 20
-888.0237234338
 10
621.8046967914
 20
-892.3161399028
 10
621.8046967914
 20
-896.6134255848
 10
622.1588936379
 20
-900.9058420538
 10
622.8664812725
 20
-905.183666091
 10
623.9258633832
 20
-909.4372109734
 10
625.3346375998
 20
-913.6568355988
 10
627.0896112983
 20
-917.8329840227
 10
629.1867963334
 20
-921.9562006657
 10
631.6214722579
 20
-926.0171303127
 10
634.3880914929
 20
-930.0065971893
 10
637.4804163049
 20
-933.9155380507
 10
640.89140817
 20
-937.7351207957
 10
644.6133779228
 20
-941.4566729941
 10
648.6378593149
 20
-945.0717792106
 10
652.9557552126
 20
-948.5722437478
 10
657.5572862298
 20
-951.9501339856
 10
662.4320141069
 20
-955.1978060431
 10
667.5689092112
 20
-958.3078950835
 10
672.956325183
 20
-961.2733615054
 10
678.5820677537
 20
-964.0874820087
 10
684.4333792698
 20
-966.7438893217
 10
690.4970187062
 20
-969.2365575655
 10
696.7592448732
 20
-971.5598412207
 10
703.2058608682
 20
-973.7084886237
 10
709.82228915
 20
-975.6776123135
 10
716.5935070014
 20
-977.4627734292
 10
723.5042151162
 20
-979.0599087176
 10
730.5387137935
 20
-980.4654172117
 10
737.681108403
 20
-981.6760963624
 10
744.9151934814
 20
-982.6892211136
 10
752.2245897097
 20
-983.5024891579
 10
759.5927439133
 20
-984.1140574329
 10
767.0029554033
 20
-984.5225390796
 10
774.4384444656
 20
-984.7270125667
 10
781.8823681661
 20
-984.7270125667
 10
789.3178572284
 20
-984.5225390796
 10
796.7280687184
 20
-984.1140574329
 10
804.0962229219
 20
-983.5024891579
 10
811.4056191503
 20
-982.6892211136
 10
818.6397042287
 20
-981.6760963624
 10
825.7820988382
 20
-980.4654172117
 10
832.8165975155
 20
-979.0599087176
 10
839.7273056303
 20
-977.4627734292
 10
846.4985234817
 20
-975.6776123135
 10
853.1149517635
 20
-973.7084886237
 10
859.5615677585
 20
-971.5598412207
 10
865.8237939255
 20
-969.2365575655
 10
871.8874333619
 20
-966.7438893217
 10
877.738744878
 20
-964.0874820087
 10
883.3644874487
 20
-961.2733615054
 10
888.7519034205
 20
-958.3078950835
 10
893.8887985248
 20
-955.1978060431
 10
898.7635264019
 20
-951.9501339856
 10
903.3650574191
 20
-948.5722437478
 10
907.6829533168
 20
-945.0717792106
 10
911.7074347089
 20
-941.4566729941
 10
915.4294044616
 20
-937.7351207957
 10
918.8403963268
 20
-933.9155380507
 10
921.9327211388
 20
-930.0065971893
 10
924.6993403738
 20
-926.0171303127
 10
927.1340162983
 20
-921.9562006657
 10
929.2312013334
 20
-917.8329840227
 10
930.9861750319
 20
-913.6568355988
 10
932.3949492485
 20
-909.4372109734
 10
933.4543313592
 20
-905.183666091
 10
934.1619189938
 20
-900.9058420538
 10
934.5161158403
 20
-896.6134255848
 10
934.5161158403
 20
-892.3161399028
 10
934.1619189938
 20
-888.0237234338
 10
933.4543313592
 20
-883.7458993966
 10
932.3949492485
 20
-879.4923545142
 10
930.9861750319
 20
-875.2727298888
 10
929.2312013334
 20
-871.0965814649
 10
927.1340162983
 20
-866.973364822
 10
924.6993403738
 20
-862.9124351749
 10
921.9327211388
 20
-858.9229682984
 10
918.8403963268
 20
-855.0140274369
 10
915.4294044616
 20
-851.1944446919
 10
911.7074347089
 20
-847.4728924935
 10
907.6829533168
 20
-843.857786277
 10
903.3650574191
 20
-840.3573217398
 10
898.7635264019
 20
-836.979431502
 10
893.8887985248
 20
-833.7317594446
 10
888.7519034205
 20
-830.6216704041
 10
883.3644874487
 20
-827.6562039822
 10
877.738744878
 20
-824.842083479
 10
871.8874333619
 20
-822.1856761659
 10
865.8237939255
 20
-819.6930079221
 10
859.5615677585
 20
-817.369724267
 10
853.1149517635
 20
-815.2210768639
 10
846.4985234817
 20
-813.2519531741
 10
839.7273056303
 20
-811.4667920584
 10
832.8165975155
 20
-809.86965677
 10
825.7820988382
 20
-808.4641482759
 10
818.6397042287
 20
-807.2534691252
 10
811.4056191503
 20
-806.240344374
 10
804.0962229219
 20
-805.4270763297
 10
796.7280687184
 20
-804.8155080547
 10
789.3178572284
 20
-804.4070264081
 10
781.8823681661
 20
-804.2025529209
 10
774.4384444656
 20
-804.2025529209
 10
767.0029554033
 20
-804.4070264081
 10
759.5927439133
 20
-804.8155080547
 10
752.2245897097
 20
-805.4270763297
 10
744.9151934814
 20
-806.240344374
 10
737.681108403
 20
-807.2534691252
 10
730.5387137935
 20
-808.4641482759
 10
723.5042151162
 20
-809.86965677
 10
716.5935070014
 20
-811.4667920584
 10
709.82228915
 20
-813.2519531741
 10
703.2058608682
 20
-815.2210768639
 10
696.7592448732
 20
-817.369724267
 10
690.4970187062
 20
-819.6930079221
 10
684.4333792698
 20
-822.1856761659
 10
678.5820677537
 20
-824.842083479
 10
672.956325183
 20
-827.6562039822
 10
667.5689092112
 20
-830.6216704041
  0
LWPOLYLINE
  5
DB
330
1F
100
AcDbEntity
  8
0
  6
Continuous
 62
     7
370
    25
100
AcDbPolyline
 90
      142
 70
   128
 43
0.0
 10
798.3129535415
 20
-337.8135237831
 10
802.3910826034
 20
-340.1685316908
 10
806.7103021755
 20
-342.6627045469
 10
811.2620459108
 20
-345.2911078029
 10
816.0372733104
 20
-348.0485088571
 10
821.0264907966
 20
-350.9294622287
 10
826.2198254701
 20
-353.9282183051
 10
831.6069197429
 20
-357.0388328467
 10
837.1771209991
 20
-360.2551426518
 10
842.9193446175
 20
-363.5707473127
 10
848.822210949
 20
-366.9790761296
 10
854.8739820962
 20
-370.473351614
 10
861.062625134
 20
-374.0466259889
 10
867.3758964029
 20
-377.6918298589
 10
873.8012361419
 20
-381.4017113787
 10
880.3258843928
 20
-385.1689274979
 10
886.9369231464
 20
-388.9859466334
 10
893.6211815125
 20
-392.8452372537
 10
900.3653885024
 20
-396.7391127538
 10
907.1561835648
 20
-400.6598835424
 10
913.9800797085
 20
-404.59968974
 10
920.8235214531
 20
-408.5507779859
 10
927.6729111717
 20
-412.5052733005
 10
934.5146565057
 20
-416.4553524709
 10
941.3351861698
 20
-420.3931315001
 10
948.120960489
 20
-424.3107933645
 10
954.8584819349
 20
-428.2005940925
 10
961.5343899567
 20
-432.0547958503
 10
968.1354267363
 20
-435.8657688357
 10
974.6485030431
 20
-439.625883298
 10
981.0606587211
 20
-443.3277300598
 10
987.3591706904
 20
-446.963939537
 10
993.5315410935
 20
-450.5273208962
 10
999.5655328561
 20
-454.0107365793
 10
1005.4491374193
 20
-457.4073270111
 10
1011.1706731912
 20
-460.7103484377
 10
1016.7188109015
 20
-463.9131875626
 10
1022.0824899658
 20
-467.0095565933
 10
1027.2511088053
 20
-469.9932381206
 10
1032.2143796379
 20
-472.8583662809
 10
1036.9624526132
 20
-475.5992307555
 10
1041.485897374
 20
-478.2103877918
 10
1045.7757247876
 20
-480.6866727489
 10
1049.8234501667
 20
-483.0231149279
 10
1053.620991853
 20
-485.2151466849
 10
1057.1608529759
 20
-487.2583433671
 10
1060.4359792065
 20
-489.1487305218
 10
1063.4398799303
 20
-490.8824645101
 10
1066.1665966365
 20
-492.4561792694
 10
1068.61069765
 20
-493.8667155889
 10
1070.7673308149
 20
-495.1112731971
 10
1072.6322287627
 20
-496.1873894728
 10
1074.2016878392
 20
-497.0929272671
 10
1075.4725786408
 20
-497.8260809868
 10
1076.4423881618
 20
-498.3854009327
 10
1077.1091829154
 20
-498.7697719946
 10
1077.4716458126
 20
-498.9784349483
 10
1077.5290708937
 20
-499.0109834107
 10
1077.2813106447
 20
-498.8673334142
 10
1076.7288813645
 20
-498.5478085846
 10
1075.8728999447
 20
-498.0529819544
 10
1074.7150101123
 20
-497.383876725
 10
1073.2575510174
 20
-496.5418202567
 10
1071.5033991823
 20
-495.5284866565
 10
1069.4560527956
 20
-494.3458602617
 10
1067.1195684915
 20
-492.9963329909
 10
1064.4985824231
 20
-491.4825339884
 10
1061.5982997264
 20
-489.8075060551
 10
1058.4244734461
 20
-487.9745839699
 10
1054.9834256096
 20
-485.9873458203
 10
1051.2819629328
 20
-483.8497955074
 10
1047.3274505776
 20
-481.566161989
 10
1043.1277278577
 20
-479.1409722758
 10
1038.6911503859
 20
-476.5790514355
 10
1034.0265057801
 20
-473.8854739152
 10
1029.143066347
 20
-471.0656183017
 10
1024.0505258617
 20
-468.1250213046
 10
1018.7589995679
 20
-465.0695846044
 10
1013.2789820308
 20
-461.905295
 10
1007.6213787475
 20
-458.6385711789
 10
1001.7973797063
 20
-455.2757648553
 10
995.818596364
 20
-451.823580541
 10
989.6968509114
 20
-448.2889660406
 10
983.4443448614
 20
-444.6788204335
 10
977.0734588507
 20
-441.0003530098
 10
970.5968474704
 20
-437.2608703433
 10
964.0273760462
 20
-433.4678371271
 10
957.3780942959
 20
-429.6287210399
 10
950.6621889149
 20
-425.7511539622
 10
943.8929941122
 20
-421.8428589757
 10
937.0839600011
 20
-417.9116260246
 10
930.2485999146
 20
-413.965190245
 10
923.4004851382
 20
-410.0113810161
 10
916.5532132987
 20
-406.0581280418
 10
909.7203714865
 20
-402.1132393009
 10
902.9155415234
 20
-398.1845622622
 10
896.1522156695
 20
-394.2798257104
 10
889.4438387692
 20
-390.4068648462
 10
882.8037134218
 20
-386.5733475163
 10
876.2450368592
 20
-382.7868806852
 10
869.7808219207
 20
-379.0549283022
 10
863.423904956
 20
-375.3849862113
 10
857.186904995
 20
-371.7843334809
 10
851.0822132111
 20
-368.2600628249
 10
845.1219395792
 20
-364.8191836447
 10
839.3179260467
 20
-361.4685383841
 10
833.6816908864
 20
-358.2148129835
 10
828.2244263913
 20
-355.0644138799
 10
822.9569666065
 20
-352.0236562218
 10
817.8897708652
 20
-349.0985049347
 10
813.0328931662
 20
-346.2948064736
 10
808.3959890893
 20
-343.6181224753
 10
803.9882532328
 20
-341.0737788081
 10
799.8184416045
 20
-338.6668359188
 10
795.8948307917
 20
-336.4020287576
 10
792.2252153273
 20
-334.2839112666
 10
788.8168787136
 20
-332.3166267254
 10
785.6765802513
 20
-330.504106992
 10
782.8105682108
 20
-328.849934105
 10
780.2245218799
 20
-327.3574589124
 10
777.9235831741
 20
-326.0296003182
 10
775.9123144897
 20
-324.8689547872
 10
774.194714509
 20
-323.8779149818
 10
772.7741865901
 20
-323.0583655784
 10
771.6535598401
 20
-322.4119570375
 10
770.835052237
 20
-321.9399869744
 10
770.320281166
 20
-321.6434123252
 10
770.11029503
 20
-321.5227459323
 10
770.2054942241
 20
-321.5783150997
 10
770.605668014
 20
-321.8099847896
 10
771.3100682931
 20
-322.2172610445
 10
772.3172620687
 20
-322.7993396647
 10
773.6252473654
 20
-323.5551366219
 10
775.2314532254
 20
-324.4830447192
 10
777.1326659516
 20
-325.581316865
 10
779.3251344744
 20
-326.8476888815
 10
781.8044860584
 20
-328.2796958695
 10
784.5658000588
 20
-329.8745079351
 10
787.6036079222
 20
-331.6289180403
 10
790.9118721125
 20
-333.5395001695
 10
794.4840177214
 20
-335.6023964067
 10
798.3129535415
 20
-337.8135237831
  0
LWPOLYLINE
  5
DC
330
1F
100
AcDbEntity
  8
0
  6
Continuous
 62
     7
370
    25
100
AcDbPolyline
 90
      133
 70
   128
 43
0.0
 10
813.2329063042
 20
-346.4266291779
 10
809.6372638273
 20
-344.3502228385
 10
806.3002870965
 20
-342.4231548032
 10
803.2295414709
 20
-340.6497453732
 10
800.4319917175
 20
-339.0340411276
 10
797.9139598633
 20
-337.5797419229
 10
795.6811462698
 20
-336.2901035536
 10
793.7386401687
 20
-335.168053332
 10
792.0907932224
 20
-334.2160927564
 10
790.7413881103
 20
-333.4364678435
 10
789.6934383322
 20
-332.8308832006
 10
788.9493567952
 20
-332.4006845236
 10
788.510797763
 20
-332.1469498607
 10
788.3787727601
 20
-332.0701184962
 10
788.5535768143
 20
-332.1704837292
 10
789.0348147989
 20
-332.4477578884
 10
789.8213856276
 20
-332.9013065481
 10
790.9115296694
 20
-333.5301394045
 10
792.3027549919
 20
-334.3328190109
 10
793.9919216549
 20
-335.3074911991
 10
795.9751995635
 20
-336.4520371637
 10
798.2481000783
 20
-337.7637631953
 10
800.8054654788
 20
-339.2396987738
 10
803.6415111101
 20
-340.8765844028
 10
806.7498095776
 20
-342.6706738815
 10
810.1233223578
 20
-344.6178863967
 10
813.7544050659
 20
-346.7138156466
 10
817.6348285298
 20
-348.9537237504
 10
821.7558024974
 20
-351.3325427687
 10
826.1080019785
 20
-353.8448351582
 10
830.6815553908
 20
-356.4849937646
 10
835.4661090977
 20
-359.2469749038
 10
840.450819176
 20
-362.1245369502
 10
845.6244031119
 20
-365.1111910967
 10
850.9751302521
 20
-368.2000924126
 10
856.4908906216
 20
-371.3843229268
 10
862.1591794481
 20
-374.6566393385
 10
867.9671613698
 20
-378.0096135131
 10
873.9016694478
 20
-381.4357109952
 10
879.9492812279
 20
-384.9270915784
 10
886.0962779111
 20
-388.4758899094
 10
892.3287378662
 20
-392.0740626366
 10
898.632552436
 20
-395.7134522864
 10
904.9934285702
 20
-399.3858009488
 10
911.3969625835
 20
-403.0828111135
 10
917.82865596
 20
-406.7961487101
 10
924.27392589
 20
-410.5173153482
 10
930.7181842957
 20
-414.2378825411
 10
937.1468167573
 20
-417.9495160366
 10
943.5452773437
 20
-421.6437263865
 10
949.8990570023
 20
-425.312179212
 10
956.1937783895
 20
-428.9465735341
 10
962.4151642602
 20
-432.5386417654
 10
968.5491322988
 20
-436.0802531399
 10
974.5817793135
 20
-439.5634410855
 10
980.4994497256
 20
-442.9801994211
 10
986.288740837
 20
-446.3229355904
 10
991.9365133679
 20
-449.5839413862
 10
997.4300073598
 20
-452.7558978872
 10
1002.7567473455
 20
-455.8316382085
 10
1007.9046898632
 20
-458.8041474854
 10
1012.862149699
 20
-461.6666906501
 10
1017.617926328
 20
-464.4128124161
 10
1022.1612196202
 20
-467.0363129551
 10
1026.4817457446
 20
-469.5312053099
 10
1030.5697371691
 20
-471.8918248994
 10
1034.4159005135
 20
-474.1128538573
 10
1038.0115429904
 20
-476.1892845314
 10
1041.3485197213
 20
-478.1163769016
 10
1044.4192653468
 20
-479.8897619967
 10
1047.2168151003
 20
-481.5054419075
 10
1049.7348469544
 20
-482.9597654471
 10
1051.967660548
 20
-484.2494038164
 10
1053.910166649
 20
-485.3714783728
 10
1055.5580135953
 20
-486.3233902788
 10
1056.9074292441
 20
-487.1030334438
 10
1057.9553684855
 20
-487.7086241694
 10
1058.6994394858
 20
-488.1388045943
 10
1059.1380090547
 20
-488.3925575093
 10
1059.270023521
 20
-488.4693706217
 10
1059.0952300035
 20
-488.368999306
 10
1058.6139920188
 20
-488.0917251468
 10
1057.8274106534
 20
-487.6381825698
 10
1056.737287685
 20
-487.0093375479
 10
1055.3460518258
 20
-486.2066640243
 10
1053.6568798945
 20
-485.2319948774
 10
1051.6736072543
 20
-484.0874702063
 10
1049.4007067394
 20
-482.7757441747
 10
1046.8433308022
 20
-481.2997903441
 10
1044.007300976
 20
-479.662895591
 10
1040.8989919718
 20
-477.8688365298
 10
1037.5254791916
 20
-475.9216240146
 10
1033.8944017518
 20
-473.8256673885
 10
1030.0139782879
 20
-471.5857592848
 10
1025.8929937836
 20
-469.206970684
 10
1021.5407995709
 20
-466.6946509183
 10
1016.9672514269
 20
-464.0544892706
 10
1012.18269772
 20
-461.2925081314
 10
1007.1979876417
 20
-458.414946085
 10
1002.0244037058
 20
-455.4283162733
 10
996.6736765656
 20
-452.3393906226
 10
991.1579161961
 20
-449.1551601084
 10
985.4896273696
 20
-445.8828436967
 10
979.6816401796
 20
-442.5298725635
 10
973.7471268332
 20
-439.1038024575
 10
967.6995255898
 20
-435.6123914568
 10
961.5525289067
 20
-432.0635931258
 10
955.3200636831
 20
-428.4654477747
 10
949.0162491134
 20
-424.826058125
 10
942.6553835159
 20
-421.153679045
 10
936.2518336975
 20
-417.4566780044
 10
929.8201508577
 20
-413.7433586599
 10
923.3748809277
 20
-410.0221920218
 10
916.9306172537
 20
-406.3016035355
 10
910.5019900605
 20
-402.5899669986
 10
904.1035400108
 20
-398.895750566
 10
897.7497392787
 20
-395.2273099059
 10
891.4550284283
 20
-391.592909501
 10
885.2336425575
 20
-388.0008412697
 10
879.0996639822
 20
-384.459235978
 10
873.0670275042
 20
-380.9760662845
 10
867.1493465554
 20
-377.5592896968
 10
861.3600659807
 20
-374.2165717796
 10
855.7123039865
 20
-370.9555599011
 10
850.2187994579
 20
-367.7835851479
 10
844.8920594722
 20
-364.7078934963
 10
839.7441169545
 20
-361.7353598846
 10
834.7866571187
 20
-358.8728167199
 10
830.0308804897
 20
-356.1266706191
 10
825.4875871975
 20
-353.5031944149
 10
821.1670610731
 20
-351.0083263949
 10
817.0790696486
 20
-348.6476824705
 10
813.2329063042
 20
-346.4266291779
  0
LWPOLYLINE
  5
DD
330
1F
100
AcDbEntity
  8
0
  6
Continuous
 62
     1
370
    25
100
AcDbPolyline
 90
       19
 70
   128
 43
0.0
 10
903.6718561832
 20
-650.1454238534
 10
909.1383998997
 20
-653.4450485649
 10
914.3449015121
 20
-656.8819745877
 10
919.2810218717
 20
-660.4493816782
 10
923.936959202
 20
-664.1401880362
 10
928.3034701723
 20
-667.9470624701
 10
932.3718791173
 20
-671.8624540502
 10
936.1341307205
 20
-675.8785738607
 10
939.5827254771
 20
-679.9874672318
 10
942.7108382318
 20
-684.180960516
 10
945.5122444219
 20
-688.4507401632
 10
947.9813912001
 20
-692.788320787
 10
950.1133895321
 20
-697.1850892636
 10
951.9039720493
 20
-701.6323290632
 10
953.3496142215
 20
-706.1211928777
 10
954.4474289898
 20
-710.6427756132
 10
955.1952405229
 20
-715.1881083072
 10
955.5915684129
 20
-719.7481611701
 10
955.6604047532
 20
-722.6016415878
  0
LWPOLYLINE
  5
DE
330
1F
100
AcDbEntity
  8
0
  6
Continuous
 62
     1
370
    25
100
AcDbPolyline
 90
       54
 70
   128
 43
0.0
 10
600.6604078785
 20
-722.6016415878
 10
600.7953146722
 20
-718.6072598781
 10
601.2796188401
 20
-714.0500446014
 10
602.1151010865
 20
-709.5098061808
 10
603.3001018792
 20
-704.9955561575
 10
604.8322715315
 20
-700.5162665356
 10
606.7085702019
 20
-696.0808211192
 10
608.9252731626
 20
-691.6980368031
 10
611.4779707996
 20
-687.3766027449
 10
614.3616054912
 20
-683.1251077372
 10
617.5704505342
 20
-678.9519915464
 10
621.0981259495
 20
-674.8655357882
 10
624.9376353602
 20
-670.8738548036
 10
629.0813580893
 20
-666.9848758903
 10
633.5210531108
 20
-663.2063126904
 10
638.24792227
 20
-659.5456773564
 10
643.2525793322
 20
-656.0102375914
 10
648.5250842265
 20
-652.6070090462
 10
654.0549618146
 20
-649.3427444843
 10
659.831235806
 20
-646.2239263685
 10
665.8424504898
 20
-643.2567543154
 10
672.0766608563
 20
-640.4471143016
 10
678.5214895615
 20
-637.8005822754
 10
685.1641410857
 20
-635.3224159832
 10
691.9914221481
 20
-633.0175310185
 10
698.9897878053
 20
-630.8905107067
 10
706.145340134
 20
-628.9455703688
 10
713.4438730122
 20
-627.186580132
 10
720.8708958263
 20
-625.6170269122
 10
728.4116571796
 20
-624.2400250593
 10
736.0511949407
 20
-623.0583117947
 10
743.7743362441
 20
-622.0742350463
 10
751.5657501738
 20
-621.2897473653
 10
759.4099582996
 20
-620.706399844
 10
767.2913926294
 20
-620.3253573222
 10
775.1944114139
 20
-620.1473770978
 10
783.1033149522
 20
-620.1728119682
 10
791.0024140799
 20
-620.401607189
 10
798.8760143641
 20
-620.833309598
 10
806.7084740559
 20
-621.4670645739
 10
814.4842567732
 20
-622.301616036
 10
822.1879367693
 20
-623.3352973207
 10
829.8041883966
 20
-624.5660737599
 10
837.3179125466
 20
-625.9914818543
 10
844.7141892347
 20
-627.6086992244
 10
851.9783197478
 20
-629.4145202797
 10
859.0959030344
 20
-631.4053516567
 10
866.0527803876
 20
-633.577253277
 10
872.8351724222
 20
-635.9258957686
 10
879.4295868782
 20
-638.4466288965
 10
885.8229437447
 20
-641.1344443055
 10
892.0025436493
 20
-643.9840059345
 10
897.956119225
 20
-646.9896553383
 10
903.6718561832
 20
-650.1454238534
  0
ARC
  5
DF
330
1F
100
AcDbEntity
  8
0
  6
Continuous
 62
     1
370
    25
100
AcDbCircle
 10
778.1604063158
 20
-547.4387216023
 30
0.0
 40
265.468991205291
100
AcDbArc
 50
259.5841810855
 51
280.4158189145
  0
LWPOLYLINE
  5
E0
330
1F
100
AcDbEntity
  8
0
  6
Continuous
 62
     1
370
    25
100
AcDbPolyline
 90
       23
 70
   128
 43
0.0
 10
903.6718561832
 20
-650.1454238534
 10
909.1748990705
 20
-653.3222463583
 10
914.4908033649
 20
-656.391003017
 10
919.6090297202
 20
-659.3456096952
 10
924.519407575
 20
-662.1801952149
 10
929.2121772996
 20
-664.8891256892
 10
933.6780520995
 20
-667.4670402643
 10
937.9081337212
 20
-669.9088024398
 10
941.8940481127
 20
-672.2095784036
 10
945.6278637641
 20
-674.3647898729
 10
949.1021760008
 20
-676.3701627658
 10
952.3100832764
 20
-678.2217135096
 10
955.2452214169
 20
-679.9157809764
 10
957.9017636203
 20
-681.4489656467
 10
960.2744362623
 20
-682.8182604032
 10
962.3585083591
 20
-684.0209227703
 10
964.1498758614
 20
-685.0545844224
 10
965.6449615553
 20
-685.9171812134
 10
966.8407940881
 20
-686.6069988064
 10
967.7350132362
 20
-687.1226757115
 10
968.3258277587
 20
-687.4631667796
 10
968.6120680803
 20
-687.6278344567
 10
968.6413759451
 20
-687.6444964869
  0
LWPOLYLINE
  5
E1
330
1F
100
AcDbEntity
  8
0
  6
Continuous
 62
     1
370
    25
100
AcDbPolyline
 90
       51
 70
   128
 43
0.0
 10
661.2023472036
 20
-510.1444914839
 10
661.2029333083
 20
-510.1448724576
 10
661.3744150054
 20
-510.2444748519
 10
661.8507488091
 20
-510.5200778518
 10
662.6309976105
 20
-510.9711749581
 10
663.7135978604
 20
-511.596806177
 10
665.0964127463
 20
-512.3957706612
 10
666.7766953146
 20
-513.3664654984
 10
668.7511019701
 20
-514.5069752571
 10
671.015716678
 20
-515.8150215114
 10
673.5660475061
 20
-517.2880135098
 10
676.3970157591
 20
-518.9230301178
 10
679.5030185405
 20
-520.7168080284
 10
682.8778879224
 20
-522.6658261795
 10
686.5149212386
 20
-524.7661787577
 10
690.4068876707
 20
-527.0137174051
 10
694.5460611743
 20
-529.4039470374
 10
698.9242415533
 20
-531.932159687
 10
703.5327202151
 20
-534.5933204367
 10
708.3623539277
 20
-537.3821343408
 10
713.4035490148
 20
-540.2930798847
 10
718.6462955999
 20
-543.3203527152
 10
724.0801886796
 20
-546.4579873111
 10
729.6944386609
 20
-549.6997413995
 10
735.4779082389
 20
-553.0391476629
 10
741.4191018607
 20
-556.4695928302
 10
747.5062289455
 20
-559.9842811766
 10
753.7271986161
 20
-563.5762132263
 10
760.0696723827
 20
-567.2382648471
 10
766.5210483374
 20
-570.9631720362
 10
773.0685191067
 20
-574.7435217999
 10
779.6990823879
 20
-578.5718434022
 10
786.3995778274
 20
-582.4405019053
 10
793.1567080946
 20
-586.3418320114
 10
799.9570494183
 20
-590.2680833043
 10
806.7870937335
 20
-594.2114567551
 10
813.6332960967
 20
-598.1641320994
 10
820.4820483442
 20
-602.1182526195
 10
827.3197686542
 20
-606.0659890335
 10
834.1328804729
 20
-609.9994664825
 10
840.9078441255
 20
-613.9109044569
 10
847.631214767
 20
-617.7925285813
 10
854.2896423834
 20
-621.6366314515
 10
860.8699060351
 20
-625.4355802358
 10
867.3589533698
 20
-629.1818394911
 10
873.7438795495
 20
-632.8679589877
 10
880.0120352512
 20
-636.4866360751
 10
886.1509515932
 20
-640.0306723225
 10
892.1484455021
 20
-643.4930343638
 10
897.9926183958
 20
-646.8668531317
 10
903.6718561832
 20
-650.1454238534
  0
ENDSEC
  0
SECTION
  2
OBJECTS
  0
DICTIONARY
  5
C
330
0
100
AcDbDictionary
281
     1
  3
ACAD_GROUP
350
D
  3
ACAD_LAYOUT
350
1A
  3
ACAD_MLINESTYLE
350
17
  3
ACAD_PLOTSETTINGS
350
19
  3
ACAD_PLOTSTYLENAME
350
E
  3
ACAD_SCALELIST
350
47
  0
DICTIONARY
  5
D
102
{ACAD_REACTORS
330
C
102
}
330
C
100
AcDbDictionary
281
     1
  0
DICTIONARY
  5
1A
102
{ACAD_REACTORS
330
C
102
}
330
C
100
AcDbDictionary
281
     1
  3
Layout1
350
1E
  3
Layout2
350
26
  3
Model
350
22
  0
DICTIONARY
  5
17
102
{ACAD_REACTORS
330
C
102
}
330
C
100
AcDbDictionary
281
     1
  3
Standard
350
18
  0
DICTIONARY
  5
19
102
{ACAD_REACTORS
330
C
102
}
330
C
100
AcDbDictionary
281
     1
  0
ACDBDICTIONARYWDFLT
  5
E
102
{ACAD_REACTORS
330
C
102
}
330
C
100
AcDbDictionary
281
     1
  3
Normal
350
F
100
AcDbDictionaryWithDefault
340
F
  0
DICTIONARY
  5
47
102
{ACAD_REACTORS
330
C
102
}
330
C
100
AcDbDictionary
281
     1
  3
A0
350
48
  3
A1
350
49
  3
A2
350
4A
  3
A3
350
4B
  3
A4
350
4C
  3
A5
350
4D
  3
A6
350
4E
  3
A7
350
4F
  3
A8
350
50
  3
A9
350
51
  3
B0
350
52
  3
B1
350
53
  3
B2
350
54
  3
B3
350
55
  3
B4
350
56
  3
B5
350
57
  3
B6
350
58
  3
B7
350
59
  3
B8
350
5A
  3
B9
350
5B
  3
C0
350
5C
  3
C1
350
5D
  3
C2
350
5E
  3
C3
350
5F
  3
C4
350
60
  3
C5
350
61
  3
C6
350
62
  3
C7
350
63
  3
C8
350
64
  3
C9
350
65
  3
D0
350
66
  3
D1
350
67
  3
D2
350
68
  0
LAYOUT
  5
1E
102
{ACAD_REACTORS
330
1A
102
}
330
1A
100
AcDbPlotSettings
  1

  2
none_device
  4

  6

 40
0.0
 41
0.0
 42
0.0
 43
0.0
 44
0.0
 45
0.0
 46
0.0
 47
0.0
 48
0.0
 49
0.0
140
0.0
141
0.0
142
1.0
143
1.0
 70
   688
 72
     1
 73
     0
 74
     5
  7

 75
    16
147
1.0
148
0.0
149
0.0
100
AcDbLayout
  1
Layout1
 70
     1
 71
     1
 10
0.0
 20
0.0
 11
420.0
 21
297.0
 12
0.0
 22
0.0
 32
0.0
 14
1.0000000000E+20
 24
1.0000000000E+20
 34
1.0000000000E+20
 15
-1.0000000000E+20
 25
-1.0000000000E+20
 35
-1.0000000000E+20
146
0.0
 13
0.0
 23
0.0
 33
0.0
 16
1.0
 26
0.0
 36
0.0
 17
0.0
 27
1.0
 37
0.0
 76
     0
330
1B
  0
LAYOUT
  5
26
102
{ACAD_REACTORS
330
1A
102
}
330
1A
100
AcDbPlotSettings
  1

  2
none_device
  4

  6

 40
0.0
 41
0.0
 42
0.0
 43
0.0
 44
0.0
 45
0.0
 46
0.0
 47
0.0
 48
0.0
 49
0.0
140
0.0
141
0.0
142
1.0
143
1.0
 70
   688
 72
     1
 73
     0
 74
     5
  7

 75
    16
147
1.0
148
0.0
149
0.0
100
AcDbLayout
  1
Layout2
 70
     1
 71
     2
 10
0.0
 20
0.0
 11
0.0
 21
0.0
 12
0.0
 22
0.0
 32
0.0
 14
0.0
 24
0.0
 34
0.0
 15
0.0
 25
0.0
 35
0.0
146
0.0
 13
0.0
 23
0.0
 33
0.0
 16
1.0
 26
0.0
 36
0.0
 17
0.0
 27
1.0
 37
0.0
 76
     0
330
23
  0
LAYOUT
  5
22
102
{ACAD_REACTORS
330
1A
102
}
330
1A
100
AcDbPlotSettings
  1

  2
none_device
  4
Letter_(8.50_x_11.00_Inches)
  6

 40
6.35
 41
6.35
 42
6.35000508
 43
6.35000508
 44
215.9
 45
279.4
 46
0.0
 47
0.0
 48
0.0
 49
0.0
140
0.0
141
0.0
142
1.0
143
1.0
 70
  1712
 72
     1
 73
     0
 74
     0
  7

 75
     0
147
1.0
148
0.0
149
0.0
100
AcDbLayout
  1
Model
 70
     1
 71
     0
 10
0.0
 20
0.0
 11
279.4
 21
215.9
 12
0.0
 22
0.0
 32
0.0
 14
0.0
 24
0.0
 34
0.0
 15
279.4
 25
215.9
 35
0.0
146
0.0
 13
0.0
 23
0.0
 33
0.0
 16
1.0
 26
0.0
 36
0.0
 17
0.0
 27
1.0
 37
0.0
 76
     0
330
1F
331
29
  0
MLINESTYLE
  5
18
102
{ACAD_REACTORS
330
17
102
}
330
17
100
AcDbMlineStyle
  2
Standard
 70
     0
  3

 62
   256
 51
90.0
 52
90.0
 71
     2
 49
0.5
 62
   256
  6
BYLAYER
 49
-0.5
 62
   256
  6
BYLAYER
  0
ACDBPLACEHOLDER
  5
F
102
{ACAD_REACTORS
330
E
102
}
330
E
  0
SCALE
  5
48
102
{ACAD_REACTORS
330
47
102
}
330
47
100
AcDbScale
 70
     0
300
1:1
140
1.0
141
1.0
290
     1
  0
SCALE
  5
49
102
{ACAD_REACTORS
330
47
102
}
330
47
100
AcDbScale
 70
     0
300
1:2
140
1.0
141
2.0
290
     0
  0
SCALE
  5
4A
102
{ACAD_REACTORS
330
47
102
}
330
47
100
AcDbScale
 70
     0
300
1:4
140
1.0
141
4.0
290
     0
  0
SCALE
  5
4B
102
{ACAD_REACTORS
330
47
102
}
330
47
100
AcDbScale
 70
     0
300
1:5
140
1.0
141
5.0
290
     0
  0
SCALE
  5
4C
102
{ACAD_REACTORS
330
47
102
}
330
47
100
AcDbScale
 70
     0
300
1:8
140
1.0
141
8.0
290
     0
  0
SCALE
  5
4D
102
{ACAD_REACTORS
330
47
102
}
330
47
100
AcDbScale
 70
     0
300
1:10
140
1.0
141
10.0
290
     0
  0
SCALE
  5
4E
102
{ACAD_REACTORS
330
47
102
}
330
47
100
AcDbScale
 70
     0
300
1:16
140
1.0
141
16.0
290
     0
  0
SCALE
  5
4F
102
{ACAD_REACTORS
330
47
102
}
330
47
100
AcDbScale
 70
     0
300
1:20
140
1.0
141
20.0
290
     0
  0
SCALE
  5
50
102
{ACAD_REACTORS
330
47
102
}
330
47
100
AcDbScale
 70
     0
300
1:30
140
1.0
141
30.0
290
     0
  0
SCALE
  5
51
102
{ACAD_REACTORS
330
47
102
}
330
47
100
AcDbScale
 70
     0
300
1:40
140
1.0
141
40.0
290
     0
  0
SCALE
  5
52
102
{ACAD_REACTORS
330
47
102
}
330
47
100
AcDbScale
 70
     0
300
1:50
140
1.0
141
50.0
290
     0
  0
SCALE
  5
53
102
{ACAD_REACTORS
330
47
102
}
330
47
100
AcDbScale
 70
     0
300
1:100
140
1.0
141
100.0
290
     0
  0
SCALE
  5
54
102
{ACAD_REACTORS
330
47
102
}
330
47
100
AcDbScale
 70
     0
300
2:1
140
2.0
141
1.0
290
     0
  0
SCALE
  5
55
102
{ACAD_REACTORS
330
47
102
}
330
47
100
AcDbScale
 70
     0
300
4:1
140
4.0
141
1.0
290
     0
  0
SCALE
  5
56
102
{ACAD_REACTORS
330
47
102
}
330
47
100
AcDbScale
 70
     0
300
8:1
140
8.0
141
1.0
290
     0
  0
SCALE
  5
57
102
{ACAD_REACTORS
330
47
102
}
330
47
100
AcDbScale
 70
     0
300
10:1
140
10.0
141
1.0
290
     0
  0
SCALE
  5
58
102
{ACAD_REACTORS
330
47
102
}
330
47
100
AcDbScale
 70
     0
300
100:1
140
100.0
141
1.0
290
     0
  0
SCALE
  5
59
102
{ACAD_REACTORS
330
47
102
}
330
47
100
AcDbScale
 70
     0
300
1/128" = 1'-0"
140
0.0078125
141
12.0
290
     0
  0
SCALE
  5
5A
102
{ACAD_REACTORS
330
47
102
}
330
47
100
AcDbScale
 70
     0
300
1/64" = 1'-0"
140
0.015625
141
12.0
290
     0
  0
SCALE
  5
5B
102
{ACAD_REACTORS
330
47
102
}
330
47
100
AcDbScale
 70
     0
300
1/32" = 1'-0"
140
0.03125
141
12.0
290
     0
  0
SCALE
  5
5C
102
{ACAD_REACTORS
330
47
102
}
330
47
100
AcDbScale
 70
     0
300
1/16" = 1'-0"
140
0.0625
141
12.0
290
     0
  0
SCALE
  5
5D
102
{ACAD_REACTORS
330
47
102
}
330
47
100
AcDbScale
 70
     0
300
3/32" = 1'-0"
140
0.09375
141
12.0
290
     0
  0
SCALE
  5
5E
102
{ACAD_REACTORS
330
47
102
}
330
47
100
AcDbScale
 70
     0
300
1/8" = 1'-0"
140
0.125
141
12.0
290
     0
  0
SCALE
  5
5F
102
{ACAD_REACTORS
330
47
102
}
330
47
100
AcDbScale
 70
     0
300
3/16" = 1'-0"
140
0.1875
141
12.0
290
     0
  0
SCALE
  5
60
102
{ACAD_REACTORS
330
47
102
}
330
47
100
AcDbScale
 70
     0
300
1/4" = 1'-0"
140
0.25
141
12.0
290
     0
  0
SCALE
  5
61
102
{ACAD_REACTORS
330
47
102
}
330
47
100
AcDbScale
 70
     0
300
3/8" = 1'-0"
140
0.375
141
12.0
290
     0
  0
SCALE
  5
62
102
{ACAD_REACTORS
330
47
102
}
330
47
100
AcDbScale
 70
     0
300
1/2" = 1'-0"
140
0.5
141
12.0
290
     0
  0
SCALE
  5
63
102
{ACAD_REACTORS
330
47
102
}
330
47
100
AcDbScale
 70
     0
300
3/4" = 1'-0"
140
0.75
141
12.0
290
     0
  0
SCALE
  5
64
102
{ACAD_REACTORS
330
47
102
}
330
47
100
AcDbScale
 70
     0
300
1" = 1'-0"
140
1.0
141
12.0
290
     0
  0
SCALE
  5
65
102
{ACAD_REACTORS
330
47
102
}
330
47
100
AcDbScale
 70
     0
300
1-1/2" = 1'-0"
140
1.5
141
12.0
290
     0
  0
SCALE
  5
66
102
{ACAD_REACTORS
330
47
102
}
330
47
100
AcDbScale
 70
     0
300
3" = 1'-0"
140
3.0
141
12.0
290
     0
  0
SCALE
  5
67
102
{ACAD_REACTORS
330
47
102
}
330
47
100
AcDbScale
 70
     0
300
6" = 1'-0"
140
6.0
141
12.0
290
     0
  0
SCALE
  5
68
102
{ACAD_REACTORS
330
47
102
}
330
47
100
AcDbScale
 70
     0
300
1'-0" = 1'-0"
140
12.0
141
12.0
290
     0
  0
ENDSEC
  0
EOF
